Oops, an error
Loading. Please wait.

Jumper Tab

version 1
version 1

Whole song

Interactive

Video

322,415 views 36 this week
11 commentsread comments
1 2 3 4 5
x 24
add to favorites
launch autoscroll
font size
0
reset
how to read this tab
guitar tuner
×
Best way to learn
"Jumper"
Autoscroll
slow
fast
+/-
esc
set tempo
stop
Author
This tab is pretty easy, the lead and a couple chords might be little off but I think it 
sounds ok.

BAND: Third eye Blind
SONG: JUMPER
Tabbed by black_guitar

------------------------------------------------------------

[Hook]
Am               C                   G
I wish you would step back from that ledge my friend
Am                      C                    G
You could cut ties with all the lies that you've been livin in, A-and
Am                 C          G
if you do not want to see me again
G            Am      C      G
I will Under-sta____i-a____i-and
G            Am      C      G
I will under-sta____i-a____i-and

[Verse 1]
Am( hold )
The angry boy, a bit too insane,
C( hold )
icing over a secret pain,
G
I know somethin's wrong,
Am
You're the first to fight, you're way to loud,
C
You're the flash of light, on a burial shroud
G
I know something's wrong
Am                       C             G
Well everyone I know has got a reason, to say, put the past away

[Hook]
Am               C                   G
I wish you would step back from that ledge my friend
Am                      C             G
You could cut ties with all the lies, that you've been livin in, a-and
Am                    C       G
if you do not want to see me again,
G             Am      C      G
I would under-sta____i-a____i-and
G             Am          C      G
I would Under-sta-a-a____i-a____i-and

[Verse 2]
Am (HOLD)
Well he's on the table and he's gone ta code,
C (HOLD)
And I do not think an one know what they are,
G (HOLD)
doing here-er
Am (HOLD)
And your friends have left, you've been dismissed,
C (HOLD)
I never thougt it would come to this, and
G
I, I want you to know-o
Am                C             G
Everyone's got to face down the demons, maybe today,we can put the past away

[Hook]
Am               C                   G
I wish you would step back from that ledge my friend
Am                      C                     G
you could cut ties with all the lies that you've been livin, a-and
Am                 C          G
if you do not want to see me again,
G             Am       C      G
I would under-sta____i-a____i-and
G             Am      C      G
I would under-sta____i-a____i-and
G             Am      C      G
I would under-sta____i-a____i-a-and


Palm mute the Am, C, G chords, then play the tab for the key-board or flute thing,
about six times.(But,The song really comes in ON the 2nd 12 on the B string).

e|--------------------------------------------------|
B|-17h18-18-18p17-12-15-13-13-13p12h13-15-----------|
G|--------------------------------------------------|
D|--------------------------------------------------|
A|--------------------------------------------------|
E|--------------------------------------------------|

LEAD:
Key (h= hammer,p= pull off, b= bend)
e|-------------------------------------------------------|
B|-12h13-13p12-15-18b-18p17-12-15b-13--13-12h13-13p12-15-|
G|-------------------------------------------------------|
D|-------------------------------------------------------|
A|-------------------------------------------------------|
E|-------------------------------------------------------|

 The rest is pretty much just the same I don't really feel like tabbing any more,
I know, I'm lazy. Hope you like most of what I got so far.
-----------------------------------------------------------
 ALL RIGH! "ROCK ON!"

************************************

| h  Hammer-on
| p  Pull-off
| b  Bend

************************************
Suggest correction
comments
print report bad tab
11 comments total. Showing first comments.
+1 reply
insomniatic_flu 0 Jan 02, 2003 07:00 PM

Yea, the words and eerything is good, but the solo thing is wrong... it may be right, but this is how i play it
Standard tuning...
e|-----------------------------------
B|--13-13-12-13-12-13-12-13-15-------
G|----------------------------12-12--
D|-----------------------------------
A|-----------------------------------
E|-----------------------------------

e|-13-13-12-13-12--------------------
B|----------------12-15--------------
G|-----------------------------------
D|-----------------------------------
A|-----------------------------------
E|-----------------------------------
Then repeat that hpw ever many times you need tooo

0 reply
insomniatic_flu 0 Jan 02, 2003 07:00 PM

The tab i did before was made out crappy.... it messed it up!!!

it goes like this
play this first
B|13-13-12-13-12-13-12-13-15
Then this...
G|12-12-----
Then this....
e|13-13-12-13-12-
Then this....
B|12-15----------
And that's how you do it

0 reply
Tikku77 30 Feb 18, 2003 07:00 PM

*shakes head* It's not Am...it's FM7. My guitar teacher tabbed it out. Play the chord:

|0|
|1|
|2|
|3|
|x|
|x|

S'okay. Just replace the Am's with FM7.

Byezles!

Tikku77 and a half -^v^-

guest
You may want to rate the tab now too:
select rating
Wanna post a correction for this tab? Suggest correction