Oops, an error
Loading. Please wait.

Never Let You Go Chords

version 1
version 1

Whole song

  • Need that A in the main riff and the D variations in the bridge.

Interactive

89,619 views 78 this week
14 commentsread comments
1 2 3 4 5
x 52
add to favorites
launch autoscroll
font size
0
reset
transpose
0
reset
display chords
guitar tuner
backing track
0:00
0:00
Autoscroll
slow
fast
+/-
esc
set tempo
stop
Strumming
There is no strumming pattern for this song yet. and get +5 IQ
[Intro/Verse]

The rhythm intro goes like this:
E|---------------------------------------|           Just do this over and over
B|---------------------------------------|           throughout the verse.
G|---9------------9----------------------|
D|---9--9--7-7----9--9--7-7-7------------|
A|---7--9--7-7----7--9--7-7-7------------|
E|------7--5-5-------7--5-5-5------------|


[Solo]

The little solo riff at the beginning and in other places:
E|---2-4-2-0------2-4-2-0------|
B|-----------2------------2--0-|
G|-----------------------------|
D|-----------------------------|
A|-----------------------------|
E|-----------------------------|

I'm not sure about the chorus. Somebody should figure it out and submit it.
Suggest correction
comments
print report bad tab
14 comments total. Showing first comments.
+3 reply
shmu1089 10 Jun 21, 2004 08:00 PM

the chorus is:

x799xxx, 799xxx 799xxx, x577xx x577xx, 577xxx 577xxx 577xxx

sorry i didnt write it in prober tab, but i think u can figure it out.

--shmu1089

0 reply
ColorsFade 36 Apr 29, 2006 08:17 PM

Good job dude. Sounds about right.

-1 reply
boknoykatok 197 Dec 23, 2006 05:11 PM

oh my god, you should state that this tab is only the verses...

guest
Wanna post a correction for this tab? Suggest correction