Oops, an error
Loading. Please wait.

Never Let You Go tab

version 1
version 1
64,750 views 18 this week
12 commentsread comments
1 2 3 4 5
x 25
add to favorites
×
Save as Personal and add changes to this tab that will be seen only by you. Learn more ›
×
You can save this tab as Personal to edit and correct it or add notes. All changes will be seen only by you. Learn more »
launch autoscroll
font size
0
reset
how to read this tab
guitar tuner
backing track
0:00
0:00
edit
Autoscroll
slow
fast
+/-
esc
set tempo
stop
Third Eye Blind  -  Never Let You Go.
 Tabbed by Ben ,  white_hooligan@hotmail.com.
  

e---------------------------------------------------
B|------------------------------------|
G|---9--------------9-----------------|
D|---7--9--7-7------7--9--7-7-7-------|
A|---7--7--5-5------7--7--5-5-5-------|
E|------7--5-5---------7--5-5-5-------|

e|----------------------------------|
B|----------------------------------|
G|--11/13-9---------11/13-9---------|
D|----------11-11-----------11-11-9-|
A|----------------------------------|
E|----------------------------------| 
:: Ultimate Guitar Archive :: 
http://www.ultimate-guitar.com 

 
Suggest correction
Creating personal tab
Creating personal tab
You can edit any tab online and save it as your Personal.

You can edit, replace or remove any tab part or add personal notes – all changes will be seen only by you.

Personal tabs can be accessed anytime from any device, even offline.
Learn more »
comments
print report bad tab
12 comments total. Showing first comments.
+1 reply
jc_2k 30 Sep 06, 2002 08:00 PM

The solo part is
e|------------------------------------|
B|------------------------------------|
G|--11/13-11-9---------11/13-9-11-----|
D|------------11-----------------11-9-|
A|------------------------------------|
E|------------------------------------|

0 reply
jc_2k 30 Sep 06, 2002 08:00 PM

sorry about that this dam correct thing sucks! just add -- till the | are in same place

-2 reply
jc_2k 30 Sep 09, 2002 08:00 PM

What is wrong wiht u people its symply
D A G You figure out the rythm
2-0-3
3-3-3
2-3-0
0-3-0
0-0-2
0-0-3

guest
Wanna post a correction for this tab? Suggest correction