Oops, an error
Loading. Please wait.

Sharp Knife tab

version 1
version 1

Whole song

4,727 views 12 this week
3 commentsread comments
1 2 3 4 5
x 4
add to favorites
×
Save as Personal and add changes to this tab that will be seen only by you. Learn more ›
×
You can save this tab as Personal to edit and correct it or add notes. All changes will be seen only by you. Learn more »
launch autoscroll
font size
0
reset
how to read this tab
guitar tuner
edit
Autoscroll
slow
fast
+/-
esc
set tempo
stop
song      : sharp knife
artist    : third eye blind
tabbed by : oneshotnothing


standard tuning


INTRO
each measure is subdivided into three triples : . . and two doubles : .
over four quarters ^

e-|--------------------------------|--------------------------------|
b-|------------14------------------|------------14----------12------|
g-|------14------------------------|------14----------14--------14--|
d-|--------------------------------|--------------------------------|
a-|--------------------------------|--------------------------------|
E-|14------------------------------|14------------------------------|
  |: . . : . . : . . : . . : . : . |: . . : . . : . . : . . : . : . |
  |^       ^       ^       ^       |^       ^       ^       ^       |
  |1       2       3       4       |1       2       3       4       |

e-|--------------------------------|--------------------------------|
b-|------------12------------------|------------------------12------|
g-|------14------------------------|------14----13--------------13--|
d-|--------------------------------|--------------------------------|
a-|--------------------------------|--------------------------------|
E-|12------------------------------|12----------------12------------|
  |: . . : . . : . . : . . : . : . |: . . : . . : . . : . . : . : . |
  |^       ^       ^       ^       |^       ^       ^       ^       |

e-|--------------------------------|--------------------------------|
b-|------------14------------------|15----14----12----14------------|
g-|------14----------------14------|------------------------14------|
d-|--------------------------------|--------------------------------|
a-|--------------------------------|--------------------------------|
E-|14----------------14--------14--|----------------------------14--|
  |: . . : . . : . . : . . : . : . |: . . : . . : . . : . . : . : . |
  |^       ^       ^       ^       |^       ^       ^       ^       |

e-|--------------------------------|--------------------------------|
b-|------------14----------12------|------------------------12------|
g-|------14----------14--------14--|------14----13--------------13--|
d-|--------------------------------|--------------------------------|
a-|--------------------------------|--------------------------------|
E-|12------------------------------|12----------------12------------|
  |: . . : . . : . . : . . : . : . |: . . : . . : . . : . . : . : . |
  |^       ^       ^       ^       |^       ^       ^       ^       |


VERSE 1

   time tick tick ticks...
e-|--------------------------------|--------------------------------|
b-|------------14------------------|------------14----------12------|
g-|------14------------------------|------14----------14--------14--|
d-|--------------------------------|--------------------------------|
a-|--------------------------------|--------------------------------|
E-|14------------------------------|14------------------------------|
  |: . . : . . : . . : . . : . : . |: . . : . . : . . : . . : . : . |
  |^       ^       ^       ^       |^       ^       ^       ^       |

e-|--------------------------------|--------------------------------|
b-|------------12------------------|------------------------12------|
g-|------14------------------------|------14----13--------------13--|
d-|--------------------------------|--------------------------------|
a-|--------------------------------|--------------------------------|
E-|12------------------------------|12----------------12------------|
  |: . . : . . : . . : . . : . : . |: . . : . . : . . : . . : . : . |
  |^       ^       ^       ^       |^       ^       ^       ^       |

e-|--------------------------------|--------------------------------|
b-|------------14------------------|15----14----12----14------------|
g-|------14----------------14------|----------------------------14--|
d-|--------------------------------|--------------------------------|
a-|--------------------------------|--------------------------------|
E-|14----------------14--------14--|--------------------------------|
  |: . . : . . : . . : . . : . : . |: . . : . . : . . : . . : . : . |
  |^       ^       ^       ^       |^       ^       ^       ^       |

e-|--------------------------------|--------------------------------|
b-|------------14----------12------|------------------------12------|
g-|------14----------14--------14--|------14----13--------------13--|
d-|--------------------------------|--------------------------------|
a-|--------------------------------|--------------------------------|
E-|12------------------------------|12----------------12------------|
  |: . . : . . : . . : . . : . : . |: . . : . . : . . : . . : . : . |
  |^       ^       ^       ^       |^       ^       ^       ^       |

   someone i swear i'll never be...
e-|--------------------------------|--------------------------------|
b-|------------14------------------|15----14----12----14------------|
g-|------14----------------14------|----------------------------14--|
d-|--------------------------------|--------------------------------|
a-|--------------------------------|--------------------------------|
E-|14----------------14--------14--|--------------------------------|
  |: . . : . . : . . : . . : . : . |: . . : . . : . . : . . : . : . |
  |^       ^       ^       ^       |^       ^       ^       ^       |
   
e-|--------------------------------|--------------------------------|
b-|------------12------------------|------------------------12------|
g-|------14----------------14------|------14----13--------------13--|
d-|--------------------------------|--------------------------------|
a-|--------------------------------|--------------------------------|
E-|12----------------12------------|12----------------12------------|
  |: . . : . . : . . : . . : . : . |: . . : . . : . . : . . : . : . |
  |^       ^       ^       ^       |^       ^       ^       ^       |

e-|--------------------------------|--------------------------------|
b-|------------14------------------|15----14----12----14------------|
g-|------14----------------14------|----------------------------14--|
d-|--------------------------------|--------------------------------|
a-|--------------------------------|--------------------------------|
E-|14----------------14--------14--|--------------------------------|
  |: . . : . . : . . : . . : . : . |: . . : . . : . . : . . : . : . |
  |^       ^       ^       ^       |^       ^       ^       ^       |
   
e-|--------------------------------|--------------------------------|
b-|------------12------------------|------------------------12------|
g-|------14----------------14------|------14----13--------------13--|
d-|--------------------------------|--------------------------------|
a-|--------------------------------|--------------------------------|
E-|12----------------12------------|12----------------12------------|
  |: . . : . . : . . : . . : . : . |: . . : . . : . . : . . : . : . |
  |^       ^       ^       ^       |^       ^       ^       ^       |


PRECHORUS 1

   it's all disappearing...
e-|--------------------------------|--------------------------------|
b-|------------14------------------|15----14----12----14----12------|
g-|------14----------------14------|----------------------------14--|
d-|--------------------------------|--------------------------------|
a-|12----------------12--------12--|----12----12----12----12--------|
E-|--------------------------------|--------------------------------|
  |: . . : . . : . . : . . : . : . |: . . : . . : . . : . . : . : . |
  |^       ^       ^       ^       |^       ^       ^       ^       |

e-|--------------------------------|--------------------------------|
b-|------------14------------------|12----12----12----15----14------|
g-|------14----------------14------|--------------------------------|
d-|12----------------12--------12--|----12----12----12----12----12--|
a-|--------------------------------|--------------------------------|
E-|--------------------------------|--------------------------------|
  |: . . : . . : . . : . . : . : . |: . . : . . : . . : . . : . : . |
  |^       ^       ^       ^       |^       ^       ^       ^       |

e-|--------------------------------|--------------------------------|
b-|------------14------------------|15----14----12----14----12------|
g-|------14----------------14------|----------------------------14--|
d-|--------------------------------|--------------------------------|
a-|12----------------12--------12--|----12----12----12----12--------|
E-|--------------------------------|--------------------------------|
  |: . . : . . : . . : . . : . : . |: . . : . . : . . : . . : . : . |
  |^       ^       ^       ^       |^       ^       ^       ^       |

e-|--------------------------------|--------------------------------|
b-|------------14------------------|12----------14----12----12------|
g-|------14----------------14------|------14--------------------14--|
d-|12----------------12--------12--|----12----12----12----12--------|
a-|--------------------------------|--------------------------------|
E-|--------------------------------|--------------------------------|
  |: . . : . . : . . : . . : . : . |: . . : . . : . . : . . : . : . |
  |^       ^       ^       ^       |^       ^       ^       ^       |


VERSE 2

   nature has it's own rules...
e-|------------0-------------------|10p9--10p9--10p9--10p9--10p9----|
b-|------10------------------------|----10----10----10----10----10--|
g-|--------------------------------|--------------------------------|
d-|--------------------------------|--------------------------------|
a-|9-------------------------------|--------------------------------|
E-|--------------------------------|--------------------------------|
  |: . . : . . : . . : . . : . : . |: . . : . . : . . : . . : . : . |
  |^       ^       ^       ^       |^       ^       ^       ^       |

e-|------------0-------------------|7-0-0-7-0-0-7-0-0-7-0-0-7-0-0-0-|
b-|------7-----------------7-------|--------------------------------|
g-|--------------------------------|--------------------------------|
d-|--------------------------------|--------------------------------|
a-|7-----------------7-------------|--------------------------------|
E-|--------------------------------|--------------------------------|
  |: . . : . . : . . : . . : . : . |: . . : . . : . . : . . : . : . |
  |^       ^       ^       ^       |^       ^       ^       ^       |

e-|------------0-----------0-------|10p9--10p9--10p9--10p9--10p9----|
b-|------10--------10----------10--|----10----10----10----10----10--|
g-|--------------------------------|--------------------------------|
d-|--------------------------------|--------------------------------|
a-|9-------------------------------|--------------------------------|
E-|--------------------------------|--------------------------------|
  |: . . : . . : . . : . . : . : . |: . . : . . : . . : . . : . : . |
  |^       ^       ^       ^       |^       ^       ^       ^       |

e-|------------0-------------------|7-0-0-7-0-0-7-0-0-7-0-0-7-0-0-0-|
b-|------7-----------------7-------|--------------------------------|
g-|--------------------------------|--------------------------------|
d-|--------------------------------|--------------------------------|
a-|7-----------------7-------------|--------------------------------|
E-|--------------------------------|--------------------------------|
  |: . . : . . : . . : . . : . : . |: . . : . . : . . : . . : . : . |
  |^       ^       ^       ^       |^       ^       ^       ^       |


PRECHORUS 2

   i think there's a reason...
e-|--------------------------------|--------------------------------|
b-|------------14------------------|15----14----12----14----12------|
g-|------14----------------14------|----------------------------14--|
d-|--------------------------------|--------------------------------|
a-|12----------------12--------12--|----12----12----12----12--------|
E-|--------------------------------|--------------------------------|
  |: . . : . . : . . : . . : . : . |: . . : . . : . . : . . : . : . |
  |^       ^       ^       ^       |^       ^       ^       ^       |

e-|--------------------------------|--------------------------------|
b-|------------14------------------|12----------12----15----14------|
g-|------14----------------14------|------14------------------------|
d-|12----------------12--------12--|----12----12----12----12----12--|
a-|--------------------------------|--------------------------------|
E-|--------------------------------|--------------------------------|
  |: . . : . . : . . : . . : . : . |: . . : . . : . . : . . : . : . |
  |^       ^       ^       ^       |^       ^       ^       ^       |

e-|--------------------------------|--------------------------------|
b-|------------14------------------|12----------12----------12------|
g-|------14----------------14------|------14----------14--------14--|
d-|--------------------------------|--------------------------------|
a-|12----------------12--------12--|----12----12----12----12--------|
E-|--------------------------------|--------------------------------|
  |: . . : . . : . . : . . : . : . |: . . : . . : . . : . . : . : . |
  |^       ^       ^       ^       |^       ^       ^       ^       |

e-|--------------------------------|--------------------------------|
b-|------------14------------------|12----12----12----12----12--12--|
g-|------14----------------14------|14----14----14----14----14--14--|
d-|12----------------12--------12--|12----12----12----12----12--12--|
a-|--------------------------------|--------------------------------|
E-|--------------------------------|--------------------------------|
  |: . . : . . : . . : . . : . : . |: . . : . . : . . : . . : . : . |
  |^       ^       ^       ^       |^       ^       ^       ^       |


CHORUS

                                    what you need is a...
e-|--------------------------------|--------------------------------|
b-|--------------------------------|--------------------------------|
g-|9-----9-----9-----9-----9---9---|9-----9-----9-----9-----9---9---|
d-|7-----7-----7-----7-----7---7---|7-----7-----7-----7-----7---7---|
a-|5-----5-----5-----5-----5---5---|5-----5-----5-----5-----5---5---|
E-|--------------------------------|--------------------------------|
  |: . . : . . : . . : . . : . : . |: . . : . . : . . : . . : . : . |
  |^       ^       ^       ^       |^       ^       ^       ^       |

e-|--------------------------------|--------------------------------|
b-|--------------------------------|--------------------------------|
g-|9-----9-----9-----9-----9---9---|9-----9-----9-----9-----9---9---|
d-|7-----7-----7-----7-----7---7---|7-----7-----7-----7-----7---7---|
a-|x-----x-----x-----x-----x---x---|x-----x-----x-----x-----x---x---|
E-|5-----5-----5-----5-----5---5---|5-----5-----5-----5-----5---5---|
  |: . . : . . : . . : . . : . : . |: . . : . . : . . : . . : . : . |
  |^       ^       ^       ^       |^       ^       ^       ^       |

e-|9-----9-----9-----9-----9---9---|9-----9-----9-----9-----9---9---|
b-|10----10----10----10----10--10--|10----10----10----10----10--10--|
g-|11----11----11----11----11--11--|11----11----11----11----11--11--|
d-|11----11----11----11----11--11--|11----11----11----11----11--11--|
a-|9-----9-----9-----9-----9---9---|9-----9-----9-----9-----9---9---|
E-|--------------------------------|--------------------------------|
  |: . . : . . : . . : . . : . : . |: . . : . . : . . : . . : . : . |
  |^       ^       ^       ^       |^       ^       ^       ^       |

e-|--------------------------------|--------------------------------|
b-|14----14----14----15----14------|--------------------------------|
g-|14----14----14----14----14------|13----13----13----13----13------|
d-|14----14----14----14----14------|14----14----14----14----14------|
a-|0-----0-----0-----0-----0-------|14----14----14----14----14------|
E-|--------------------------------|12----12----12----12----12------|
  |: . . : . . : . . : . . : . : . |: . . : . . : . . : . . : . : . |
  |^       ^       ^       ^       |^       ^       ^       ^       |

                                    i wish i was a...
e-|--------------------------------|--------------------------------|
b-|--------------------------------|--------------------------------|
g-|9-----9-----9-----9-----9---9---|9-----9-----9-----9-----9---9---|
d-|7-----7-----7-----7-----7---7---|7-----7-----7-----7-----7---7---|
a-|5-----5-----5-----5-----5---5---|5-----5-----5-----5-----5---5---|
E-|--------------------------------|--------------------------------|
  |: . . : . . : . . : . . : . : . |: . . : . . : . . : . . : . : . |
  |^       ^       ^       ^       |^       ^       ^       ^       |

e-|--------------------------------|--------------------------------|
b-|--------------------------------|--------------------------------|
g-|9-----9-----9-----9-----9---9---|9-----9-----9-----9-----9---9---|
d-|7-----7-----7-----7-----7---7---|7-----7-----7-----7-----7---7---|
a-|x-----x-----x-----x-----x---x---|x-----x-----x-----x-----x---x---|
E-|5-----5-----5-----5-----5---5---|4-----4-----4-----4-----4---4---|
  |: . . : . . : . . : . . : . : . |: . . : . . : . . : . . : . : . |
  |^       ^       ^       ^       |^       ^       ^       ^       |

e-|--------------------------------|--------------------------------|
b-|--------------------------------|--------------------------------|
g-|--------------------------------|--------------------------------|
d-|4-----4-----4-----4-----4---4---|4-----4-----4-----4-----4---4---|
a-|4-----4-----4-----4-----4---4---|4-----4-----4-----4-----4---4---|
E-|2-----0-----2-----0-----2---0---|2-----0-----2-----0-----2---0---|
  |: . . : . . : . . : . . : . : . |: . . : . . : . . : . . : . : . |
  |^       ^       ^       ^       |^       ^       ^       ^       |

e-|--------------------------------|--------------------------------|
b-|14----14----14----14----14------|--------------------------------|
g-|14----14----14----16----14------|13----13----13----13----13------|
d-|14----14----14----14----14------|14----14----14----14----14------|
a-|0-----0-----0-----0-----0-------|14----14----14----14----14------|
E-|--------------------------------|12----12----12----12----12------|
  |: . . : . . : . . : . . : . : . |: . . : . . : . . : . . : . : . |
  |^       ^       ^       ^       |^       ^       ^       ^       |


POST CHORUS

e-|--------------------------------|--------------------------------|
b-|2-----3-----2-------------------|2-----3-----2-------------------|
g-|2-----2-----2-------4---4-------|2-----2-----2-------------------|
d-|0-----0-----0-------4---4-------|0-----0-----0-------4---4---2---|
a-|--------------------2---2-------|--------------------4---4---2---|
E-|--------------------------------|--------------------2---2---0---|
  |: . . : . . : . : . : . : . : . |: . . : . . : . : . : . : . : . |
  |^       ^       ^       ^       |^       ^       ^       ^       |

e-|--------------------------------|--------------------------------|
b-|2-----3-----2-------------------|2-----3-----2-------------------|
g-|2-----2-----2-------4---4-------|2-----2-----2-------------------|
d-|0-----0-----0-------4---4-------|0-----0-----0-------4---4---2---|
a-|--------------------2---2-------|--------------------4---4---2---|
E-|--------------------------------|--------------------2---2---0---|
  |: . . : . . : . : . : . : . : . |: . . : . . : . : . : . : . : . |
  |^       ^       ^       ^       |^       ^       ^       ^       |


VERSE 3

e-|--------------------------------|--------------------------------|
b-|------------14------------------|12----------------------12------|
g-|------14----------------14------|------------14--------------14--|
d-|--------------------------------|--------------------------------|
a-|--------------------------------|--------------------------------|
E-|14----------------14--------14--|------12----------12------------|
  |: . . : . . : . . : . . : . : . |: . . : . . : . . : . . : . : . |
  |^       ^       ^       ^       |^       ^       ^       ^       |

e-|--------------------------------|--------------------------------|
b-|------------12------------------|------------------------12------|
g-|------14----------------14------|------14----13--------------13--|
d-|--------------------------------|--------------------------------|
a-|--------------------------------|--------------------------------|
E-|12----------------12------------|12----------------12------------|
  |: . . : . . : . . : . . : . : . |: . . : . . : . . : . . : . : . |
  |^       ^       ^       ^       |^       ^       ^       ^       |

   some new friend...
e-|------------9-------------------|10p9--10p9--10p9--10p9--10p9----|
b-|------10----------------10------|----10----10----10----10----10--|
g-|--------------------------------|--------------------------------|
d-|--------------------------------|--------------------------------|
a-|9-------------------------------|--------------------------------|
E-|--------------------------------|--------------------------------|
  |: . . : . . : . . : . . : . : . |: . . : . . : . . : . . : . : . |
  |^       ^       ^       ^       |^       ^       ^       ^       |

e-|------------0-------------------|7-0-0-7-0-0-7-0-0-7-0-0-7-0-0-0-|
b-|------7-----------------7-------|--------------------------------|
g-|--------------------------------|--------------------------------|
d-|--------------------------------|--------------------------------|
a-|7-----------------7-------------|--------------------------------|
E-|--------------------------------|--------------------------------|
  |: . . : . . : . . : . . : . : . |: . . : . . : . . : . . : . : . |
  |^       ^       ^       ^       |^       ^       ^       ^       |

e-|--------------------------------|--------------------------------|
b-|------------14------------------|15----14----12----14----12------|
g-|------14----------------14------|--------------------------------|
d-|--------------------------------|--------------------------------|
a-|--------------------------------|--------------------------------|
E-|14----------------14--------14--|----------------------------14--|
  |: . . : . . : . . : . . : . : . |: . . : . . : . . : . . : . : . |
  |^       ^       ^       ^       |^       ^       ^       ^       |

e-|--------------------------------|--------------------------------|
b-|------------12------------------|------------------------12------|
g-|------14----------------14------|------14----13--------------13--|
d-|--------------------------------|--------------------------------|
a-|--------------------------------|--------------------------------|
E-|12----------------12------------|12----------------12------------|
  |: . . : . . : . . : . . : . : . |: . . : . . : . . : . . : . : . |
  |^       ^       ^       ^       |^       ^       ^       ^       |


PRECHORUS 2

   yes it's all disappearing...
e-|--------------------------------|--------------------------------|
b-|------------14------------------|15----14----12----14------------|
g-|------14----------------14------|------------------------14------|
d-|--------------------------------|--------------------------------|
a-|12----------------12--------12--|----12----12----12----12----12--|
E-|--------------------------------|--------------------------------|
  |: . . : . . : . . : . . : . : . |: . . : . . : . . : . . : . : . |
  |^       ^       ^       ^       |^       ^       ^       ^       |

e-|--------------------------------|--------------------------------|
b-|------------14------------------|12----12----12----15----14------|
g-|------14----------------14------|--------------------------------|
d-|12----------------12--------12--|----12----12----12----12----12--|
a-|--------------------------------|--------------------------------|
E-|--------------------------------|--------------------------------|
  |: . . : . . : . . : . . : . : . |: . . : . . : . . : . . : . : . |
  |^       ^       ^       ^       |^       ^       ^       ^       |

e-|--------------------------------|--------------------------------|
b-|------------14------------------|12----------12----------12------|
g-|------14----------------14------|------14----------14--------14--|
d-|--------------------------------|--------------------------------|
a-|12----------------12--------12--|----12----12----12----12--------|
E-|--------------------------------|--------------------------------|
  |: . . : . . : . . : . . : . : . |: . . : . . : . . : . . : . : . |
  |^       ^       ^       ^       |^       ^       ^       ^       |

e-|--------------------------------|--------------------------------|
b-|------------14------------------|12----12----12----12----12--12--|
g-|------14----------------14------|14----14----14----14----14--14--|
d-|12----------------12--------12--|12----12----12----12----12--12--|
a-|--------------------------------|--------------------------------|
E-|--------------------------------|--------------------------------|
  |: . . : . . : . . : . . : . : . |: . . : . . : . . : . . : . : . |
  |^       ^       ^       ^       |^       ^       ^       ^       |


CHORUS
POST CHORUS

SOLO

e-|--------------------------------|--------------------------------|
b-|--------------------------------|--------------------------------|
g-|2----------/11--------------9h11|9---------------7-----6-----4---|
d-|--------------------------------|--------------------------------|
a-|--------------------------------|--------------------------------|
E-|--------------------------------|--------------------------------|
  |^   .   ^   .   ^   .   ^   .   |^   .   ^   .   ^   .   ^   .   |

e-|--------------------------------|--------------------------------|
b-|--------------------------------|--------------------------------|
g-|2----------/11--------------9h11|9-----11----13--13b---13----11--|
d-|--------------------------------|--------------------------------|
a-|--------------------------------|--------------------------------|
E-|--------------------------------|--------------------------------|
  |^   .   ^   .   ^   .   ^   .   |^   .   ^   .   ^   .   ^   .   |


e-|--------------------------------|--------------------------------|
b-|-----------------------/5-------|-----------------------/5-------|
g-|2-----4-----2---4---2-----------|2-----4-----2---4---2-----------|
d-|--------------------------------|--------------------------------|
a-|--------------------------------|--------------------------------|
E-|--------------------------------|--------------------------------|
  |: . . : . . : . : . : . : . : . |: . . : . . : . : . : . : . : . |
  |^       ^       ^       ^       |^       ^       ^       ^       |

e-|2-0-0-4-0-0-5-0-0-4-0-0-2-0-0-4-|0-0-5-0-4-0-4-0-2-0-------------|
b-|--------------------------------|--------------------3-0-3-0-2-0-|
g-|--------------------------------|--------------------------------|
d-|--------------------------------|--------------------------------|
a-|--------------------------------|--------------------------------|
E-|--------------------------------|--------------------------------|
  |: . . : . . : . . : . . : . . : |. . : . : . : . : . : . : . : . |
  |^       ^       ^       ^       |^       ^       ^       ^       |


POST CHORUS
CHORUS
POST CHORUS

            
            
Suggest correction
Creating personal tab
Creating personal tab
You can edit any tab online and save it as your Personal.

You can edit, replace or remove any tab part or add personal notes – all changes will be seen only by you.

Personal tabs can be accessed anytime from any device, even offline.
Learn more »
comments
print report bad tab
3 comments total.
0 reply
DasGrobeFloyd 10 Sep 18, 2010 12:31 PM

great tab bro.....Third Eye Blind's shit just gets better.

0 reply
DasGrobeFloyd 10 Sep 18, 2010 12:31 PM

any advice on getting their sound though?

0 reply
laylaman713 10 Oct 14, 2013 03:06 PM

tab aint bad at all.. im gonna try to play that main riff lower down on the neck though.. a lil less awkward.. overall a good tab tho of a real sweet TEB song.

guest
You may want to rate the tab now too:
select rating
Wanna post a correction for this tab? Suggest correction