Oops, an error
Loading. Please wait.

Tattoo Of The Sun tab

version 1
version 1

Whole song

Interactive

6,478 views 6 this week
1 commentread comment
1 2 3 4 5
x 5
add to favorites
×
Save as Personal and add changes to this tab that will be seen only by you. Learn more ›
×
You can save this tab as Personal to edit and correct it or add notes. All changes will be seen only by you. Learn more »
launch autoscroll
font size
0
reset
how to read this tab
guitar tuner
edit
Autoscroll
slow
fast
+/-
esc
set tempo
stop
Artist: 3eb
Title: Tattoo of the Sun
Album: S-CL Single
Transcribed by:Steven Bradley


Intro *recurs in different spots throughout the song*
-----0--------------------0---------------------------------------------------|
---3---3---3------------3---3---3---------------------------------------------|
---------0---0---0h2----------2---2-2-0---------------------------------------|
-2--------------------0-------------------------------------------------------|
------------------------------------------------------------------------------|
------------------------------------------------------------------------------|
                                      repeat

Verse/Intro Chords                     Wah Part for Intro *recurs throughout*
--3------3----------------------------|------------------|--------------------|
--3------3----------------------------|------------------|--------------------|
--0------2----------------------------|------------------|--------------------|
--2------0----------------------------|-----5------5-5h7-|---5-7----5h7-5-----|
--------------------------------------|-5-7---5-7--------|-5------5-----------|
--------------------------------------|------------------|--------------------|
             <-- mute strum throughout

Bass Fill for
after "what the
caller brings
you.."
--------------|----------------------------------------------------------------|
--------------|-------------------------13-------------------------------------|
--5h7 5h7 5h7-|--------------9--10--14--12-------------------------------------|
--------------|-2--3--7-10---9--10--14--10-------------------------------------|
--------------|-2--3--7-10---7--8---12-----------------------------------------|
--------------|-0--1--5--8-----------------------------------------------------|
                <----not right rhythm-------------not right rhythm-------------|

                Chords for section "What will you do when the feeling
     That you have is through?"

------------------------------------------------------------------------
     I believe everything you say
     Cuz your not frightened
     the way I've been so
     So I follow you
     Just in case you lose your way
     So glad you let me stay around

     The chain link fence you climbed
     To make forbidden lakes our own
     Your's and mine
     And with ease of the sea gulls
     We cut the engines and cruise high
     In the summer sky

     Now I could speak to everything
     But there's no room for my voice
     When sweet feed back is
     Jumping through the hoop of your ear
     Ring there goes the phone
     And then you're off again
     On what the caller brings you

     So I went and trashed myself at the bar
     Confused for nothing thinking you'd be there
     I'm so embarrassed cuz it's you
     Who comes to take care of me
     Shambling home again with you to lead
     And it's not the way I want to go

     And I'm mad at you and I'm mad at me
     Talking endlessly, not a kind word to say
     Till your amber beads of wisdom come
     And I want to write it down
     Just the way you said it
     So I could keep it always

     I can't forget the smell
     Of summer trees at midnight
     Bending backwards to please the wind
     You touch the tattoo of the sun
     On a warm belly that once carried a baby for a while
     Then let that crackled leather jacket round you fold
     Red face saints monogrammed in gold
     And in this beauty I would not go any further
     Cuz I suddenly remembered
     We can't live this way forever

     Idle daylight
     I've never caught you in a lie
     Not until now
     I feel somehow
     The passing of these days gone by
     What will you do when the feeling
     That you have is through
     I need to know
     Cuz I?ll never stop hanging on to you
     And it's times like this that I dread
     When there's everything to say
     And nothing left
     To be said
     And it makes me sad

            
            
Suggest correction
Creating personal tab
Creating personal tab
You can edit any tab online and save it as your Personal.

You can edit, replace or remove any tab part or add personal notes – all changes will be seen only by you.

Personal tabs can be accessed anytime from any device, even offline.
Learn more »
comments
print report bad tab
1 comment total.
0 reply
guitarflare 51 Jun 18, 2011 12:29 PM

Pretty good tab, thanks. Just to add to it, the fill part that plays during the choruses goes like this:

e|------------------|
B|------------------|
G|------7-9-7-------|
D|-------------5-7--|
A|-7----------------|
E|------------------}

There may or may not be some weird effect on this, I don't really know. Just figured it out a couple minutes ago and wanted to share.

guest
Wanna post a correction for this tab? Suggest correction