Oops, an error
Loading. Please wait.

Do No Wrong bass

version 1
version 1

Whole song

Interactive

372 views 1 this week
no commentswrite comment
1 2 3 4 5
1 last vote to show rating
add to favorites
×
Save as Personal and add changes to this tab that will be seen only by you. Learn more ›
×
You can save this tab as Personal to edit and correct it or add notes. All changes will be seen only by you. Learn more »
launch autoscroll
font size
0
reset
guitar tuner
edit
Autoscroll
slow
fast
+/-
esc
set tempo
stop
Author
Do No Wrong
Thirteen Senses
Bass Tab tabbed by levinzsk8er, levinix1994@hotmail.com

Tuning: EADG

This is an amazing song, with an amazing bass line but these guys really arent famous ><

Intro (0:22)
G-------------------------------------------------------|
D-------------------------------------------------------|
A-55555555-33333333-11111111-0000-----------------------|
E--------------------------------3310-------------------|

Verse (0:35)
G-------7-7---------------5--5----------------3-3-----------------|
D----5/7---5h7-5-7-----3/5----3h5-3-2------1/3---3----------------|
A-5-5---------------3-3--------------3--1-1-------1-3---00000-----|
E------------------------------------------------------------310--|

G-------------------------------------------------------|
D-------------------------------------------------------|
A-55-5h75-5/7--33-3h53-3/5-11-1h31-1/3-0000000000000000-|
E---5----5-------3----3------1----1---------------------|

G---------------------7------|
D------------------5/7-------|
A-1-------3------------------|
E----------------------------|

G------------------------5--5----------------3-3-----------------|
D----5h75-5-----------3/5----3h5-3-2------1/3---3----------------|
A-5-5------5-------3-3--------------3--1-1-------1-3---00000-----|
E------------3-5--------------------------------------------310--|

G-------------------------------------------------------|
D-------------------------------------------------------|
A-55-5h75-5/7--33-3h53-3/5-11-1h31-1/3-0000000000000000-|
E---5----5-------3----3------1----1---------------------|

G---------------------7------|
D------------------5/7-------|
A-1-------3------------------|
E----------------------------|

Chorus (1:46)
G------------------------------------|
D------------------------------------|
A-55555555-33333333-11111111-0000----|
E--------------------------------3-5-|

G---------------------------------------------|
D---------------------------------------------|
A-55555555-33333333-11111111-0000000000000000-|
E---------------------------------------------|

G---------------------7------|
D------------------5/7-------|
A-1-------3------------------|
E----------------------------|

Verse 2 (2:22)

G-------9-7------------7-5------------5-3-----------------|
D----5/7---7557-----3/5---532------1/3---3----------775---|
A-5-5-----------3-33---------31-1-1--------113-005/7---87-|
E---------------------------------------------------------|

G-------------------------------------------------------|
D-------------------------------------------------------|
A-55-5h75-5/7--33-3h53-3/5-11-1h31-1/3-0000000000000000-|
E---5----5-------3----3------1----1---------------------|

G---------------------7------|
D------------------5/7-------|
A-1-------3------------------|
E----------------------------|

G-------9-7------------7-5------------5-3---------------|
D----5/7---7557-----3/5---532------1/3---3--------------|
A-5-5-----------3-33---------31-1-1--------113-00000----|
E---------------------------------------------------310-|

G-------------------------------------------------------|
D-------------------------------------------------------|
A-55-5h75-5/7--33-3h53-3/5-11-1h31-1/3-0000000000000000-|
E---5----5-------3----3------1----1---------------------|

G---------------------7------|
D------------------5/7-------|
A-1-------3------------------|
E----------------------------|

Chorus (3:35)
G-------------------------------------|
D-------------------------------------|
A-55555555-33333333-11111111-00000----|
E---------------------------------310-|

G-------------------------------------|
D-------------------------------------|
A-55555555-33333333-11111111-0000-----|
E--------------------------------3310-|

Bridge (3:59)
G-------------------------------------------------------------------|
D-------------------------------------------------------------------|
A-5-558p75-5-558p78-----8h7------8h7------8h7------8h7--------------|
E-------------------8-88---8-8-88---8-6-66---6-6-66---6--55555310---|

G----------------------------------------------------------------|
D----------------------------------------------------------------|
A-5-558p75-5-558p78-----8h7-10-----8h7-10------8h7------8h7------|
E-------------------8-88-------8-88--------6-66---6-6-66---6-----|

G-----------------------------|
D-----------------------------|
A-0000000000000000------------|
E-----------------------------|

Outro (4:26)
G-------------------------7--------------|
D----------------------5/7---------------|
A-1--------3-----------------------------|
E----------------------------------------|

Thats it, theres about a minute left of the song which the bass doesnt play.

ENJOY and comment please

- levinzsk8er, levinix1994@hotmail.com

            
            
Suggest correction
Creating personal tab
Creating personal tab
You can edit any tab online and save it as your Personal.

You can edit, replace or remove any tab part or add personal notes – all changes will be seen only by you.

Personal tabs can be accessed anytime from any device, even offline.
Learn more »
Give kudos to tab author, rate the tab!
1 2 3 4 5
comments
print report bad tab
guest
You may want to rate the tab now too:
select rating
Wanna post a correction for this tab? Suggest correction