Oops, an error
Loading. Please wait.

The Loneliest Star Chords

52 views 1 this week
no commentswrite comment
1 2 3 4 5
3 more votes to show rating
add to favorites
launch autoscroll
font size
0
reset
transpose
0
reset
display chords
guitar tuner
Autoscroll
slow
fast
+/-
esc
set tempo
stop
Help us to improve Ultimate-Guitar.com Take our survey!
×
Author
Difficulty
Capo
novice
3rd fret
Em,D,Am,C,G,F,E
From the acoustic of Loneliest star and the piano version of Daniel Wagner on you tube.
Capo 3rd Fret

[Verse]
Em 
In this world
             D 
In this world of mine
Am                             C
I will keep you til the very end 
Em
And at the end 
                 D
At the end of time
Am                             C  
I will hold you in my arms again 

[Chorous]
G               D
Modern man has a heart of stone 
G                 F E
In an age we are so ordinary 
G                           D
Let's pretend, let's pretend we're old 
G                 F E    
But I sense that we are already there 

C       Am              D
You are the loneliest star 
C       Am              D
You are the loneliest star 


Em
In my heart 
           D  
In my heart a slave 
Am                    C
I'll release it when I'm miles away 
Em
Miles away 
           D
Miles away from home 
Am                       C
I'll be waiting for your lonely soul 

G               D
Modern man has a heart of stone 
G                 F E
In an age we are so ordinary 
G                           D
Let's pretend, let's pretend we're old 
G                 F E    
But I sense that we are already there 

C       Am              D
You are the loneliest star 
C       Am              D
You are the loneliest star 
C       Am    D
You are 
C       Am    D
You are 

Intermediate part 
G F E

G                           D
Let's pretend, let's pretend we're old 
G                 F E    
But I sense that we are already there 


C       Am              D
You are the loneliest star 
C       Am              D
You are the loneliest star 


Main Riff
e------9----------------11---------------9---------------8-----8/9\8-6-------------------------
B---11----11-11-11---11----11-11-11---11---11-11-11---11---11----------------------------------
G----------------------------------------------------------------------------------------------
D----------------------------------------------------------------------------------------------
A----------------------------------------------------------------------------------------------
E----------------------------------------------------------------------------------------------


e------9----------------11---------------13--------------8-----8/9\8-6-------------------------
B---11----11-11-11---11----11-11-11---11---11-11-11---11---11----------------------------------
G----------------------------------------------------------------------------------------------
D----------------------------------------------------------------------------------------------
A----------------------------------------------------------------------------------------------
E----------------------------------------------------------------------------------------------

Comments welcome.
Suggest correction
Give kudos to tab author, rate the tab!
1 2 3 4 5
comments
print report bad tab
guest
You may want to rate the tab now too:
select rating
Wanna post a correction for this tab? Suggest correction