Oops, an error
Loading. Please wait.

Fall Of Prospero Tab

89 views 1 this week
no commentswrite comment
1 2 3 4 5
please rate
add to favorites
launch autoscroll
font size
0
reset
how to read this tab
guitar tuner
Tab Pro tools
  • play this tab
  • loop segment
  • change instrument
  • show fretboard
  • metronome
×
Best way to learn
"Fall Of Prospero"
Autoscroll
slow
fast
+/-
esc
set tempo
stop
Contributor
Difficulty
Tuning
novice
D A D G B E
Song Name:Fall Of Prospero
By:Thirteen Yards To Victroy
Tabbed by:Matt Mannion
Email:Skatboarda90@aol.com
Tuning:DADGBE
Intro

g1
e|-------------------------------------------------------------------------|
B|*------------------------------------------------------------------------|
G|-1515151515151515-1414141414141414-1515151515151515-1414141414141414-----|
D|--x-x-x-x-x-x-x-x--x-x-x-x-x-x-x-x--x-x-x-x-x-x-x-x--x-x-x-x-x-x-x-x-----|
A|*1313131313131313-1212121212121212-1313131313131313-1212121212121212-----|
E|-------------------------------------------------------------------------|

g2
e|-------------------------------------------------------------------------|
B|*------------------------------------------------------------------------|
G|-------------------------------------------------------------------------|
D|--1-1-1-1-1-1-1--1-1-1-1-1-1-1-1--1-1-1-1-1-1-1-1--1-1-1-1-1-1-1-1-------|
A|*-1-1-1-1-1-1-1--1-1-1-1-1-1-1-1--1-1-1-1-1-1-1-1--1-1-1-1-1-1-1-1-------|
E|--1-1-1-1-1-1-1--1-1-1-1-1-1-1-1--1-1-1-1-1-1-1-1--1-1-1-1-1-1-1-1-------|

g1
e|-------------------------------------------------------------------------|
B|------------------------------------------------------------------------*|
G|-1212121212121212-1010101010101010-1212121212121212-1010101010101010-----|
D|--x-x-x-x-x-x-x-x--x-x-x-x-x-x-x-x--x-x-x-x-x-x-x-x--x-x-x-x-x-x-x-x-----|
A|-1010101010101010--8-8-8-8-8-8-8-8-1010101010101010--8-8-8-8-8-8-8-8----*|
E|-------------------------------------------------------------------------|

g2
e|-------------------------------------------------------------------------|
B|------------------------------------------------------------------------*|
G|-------------------------------------------------------------------------|
D|-5-5-5-5-5-5-5-5--5-5-5-5-5-5-5-5--3-3-3-3-3-3-3-3--3-3-3-3-3-3-3-3-3----|
A|-5-5-5-5-5-5-5-5--5-5-5-5-5-5-5-5--3-3-3-3-3-3-3-3--3-3-3-3-3-3-3-3-3---*|
E|-5-5-5-5-5-5-5-5--5-5-5-5-5-5-5-5--3-3-3-3-3-3-3-3--3-3-3-3-3-3-3-3-3----|

Interlude
g1
e|-------------------------------------------------------------------------|
B|-------------------------------------------------------------------------|
G|-8~--------------8~---------------8~---------------8~--------------------|
D|-x---------------x----------------x----------------x---------------------|
A|-6~--------------6~---------------6~---------------6~--------------------|
E|-------------------------------------------------------------------------|

g2
e|-------------------------------------------------------------------------|
B|-------------------------------------------------------------------------|
G|-------------------------------------------------------------------------|
D|-1~--------------1~---------------1~---------------1~--------------------|
A|-1~--------------1~---------------1~---------------1~--------------------|
E|-1~--------------1~---------------1~---------------1~--------------------|

Chorus
g1+g2"this room is full of fools and other insecurities"
e|-------------------------------------------------------------------------|
B|-------------------------------------------------------------------------|
G|-------------------------------------------------------------------------|
D|------5-----------------------------5------------------------------------|
A|-5555-5-pause------------------5555-5-pause------------------------------|
E|-5555-5------------------------5555-5------------------------------------|
   ....                          ....
e|-------------------------------------------------------------------------|
B|-------------------------------------------------------------------------|
G|-------------------------------------------------------------------------|
D|------1-----------------------------3------------------------------------|
A|-1111-1-pause------------------3333-3-pause------------------------------|
E|-1111-1------------------------3333-3------------------------------------|
   ....                          ....

verse

g1 "the casket arrived at quarter past nine, but a quarter of thier lives were left behind"
e|-------------------------------------------------------------------------|
B|-------------------------------------------------------------------------|
G|-------------------------------------------------------------------------|
D|------5-------------------------------5----------------------------------|
A|-5555-5-pause--------------------5555-5-pause----------------------------|
5|-5555-5--------------------------5555-5----------------------------------|
   ....                            ....
g2
e|-------------------------------------------------------------------------|
B|-------------------------------------------------------------------------|
G|-------------------------------------------------------------------------|
D|------5--------------------------------5---------------------------------|
A|-5555-5---5-5-5-5-5-5-5-5-5-5-5-5-5555-5---5-5-5-5-5-5-5-5-5-5-5-5-------|
E|-5555-5---5-5-5-5-5-5-5-5-5-5-5-5-5555-5---5-5-5-5-5-5-5-5-5-5-5-5-------|
   ....     . . . . . . . . . . . . ....     . . . . . . . . . . . .
 "26 minutes and they'll all be dead 26 minutes and they'll meet thier end"
e|-------------------------------------------------------------------------|
B|-------------------------------------------------------------------------|
G|-------------------------------------------------------------------------|
D|------1-------------------------------3----------------------------------|
A|-1111-1-pause--------------------3333-3-pause----------------------------|
E|-1111-1--------------------------3333-3----------------------------------|
   ....                            ....

e|-------------------------------------------------------------------------|
B|-------------------------------------------------------------------------|
G|-------------------------------------------------------------------------|
D|------1--------------------------------3---------------------------------|
A|-1111-1---1-1-1-1-1-1-1-1-1-1-1-1-3333-3---3-3-3-3-3-3-3-3-3-3-3-3-------|
E|-1111-1---1-1-1-1-1-1-1-1-1-1-1-1-3333-3---3-3-3-3-3-3-3-3-3-3-3-3-------|
   ....     . . . . . . . . . . . . ....     . . . . . . . . . . . .

interlude 2

"from behind these walls we thought were safe" "never again, never again"
g1                                                                        x4
e|-------------------------------------------------------------------------|
B|*-----------------------------------------------------------------------*|
G|-1212121212121212121212121212-10108-8-8-8-8-8-8-8-8-8-8-8-8-81010--------|
D|--x-x-x-x-x-x-x-x-x-x-x-x-x-x-x-x-x-x-x-x-x-x-x-x-x-x-x-x-x-x-x-x--------|
A|*1010101010101010101010101010-8-8-6-6-6-6-6-6-6-6-6-6-6-6-6-6-8-8-------*|
E|-------------------------------------------------------------------------|

g2                                                                        x4
e|-------------------------------------------------------------------------|
B|*-----------------------------------------------------------------------*|
G|-------------------------------------------------------------------------|
D|--5-5-5-5-5-5-5-5-5-5-5-5-5-5-3-3-1-1-1-1-1-1-1-1-1-1-1-1-1-1-3-3--------|
A|*-5-5-5-5-5-5-5-5-5-5-5-5-5-5-3-3-1-1-1-1-1-1-1-1-1-1-1-1-1-1-3-3-------*|
E|--5-5-5-5-5-5-5-5-5-5-5-5-5-5-3-3-1-1-1-1-1-1-1-1-1-1-1-1-1-1-3-3--------|

Bridge1:

g1 and g2
e|-------------------------------------------------------------------------|
B|-------------------------------------------------------------------------|
G|-----------------2h3h2---------------------2h3h2-------------------------|
D|------5--5-5--5--------3~-------5--5-5--5--------3~----------------------|
A|-5555-5--5-5--5------------5555-5--5-5--5--------------------------------|
E|-5555-5--5-5--5------------5555-5--5-5--5--------------------------------|
   ....                      ....
e|-------------------------------------------------------------------------|
B|-------------------------------------------------------------------------|
G|----------------2h3h2---------------------2h3h2--5~----------------------|
D|------1--1-1--1-------3~--------3--3-3--3--------------------------------|
A|-1111-1--1-1--1------------3333-3--3-3--3--------------------------------|
E|-1111-1--1-1--1------------3333-3--3-3--3--------------------------------|
   ....                      ....

-chorus
-verse(2)"these ?(i don't know this one word)are the life of the party
and everyone just dance around them; but just watch your step; fuedal efforts make 
friends"

-interlude 2 "from behind these wall i thought were safe""never again, never again"

interlude 3

g1 left speaker
e|--------------------------------------------(5+)-------------------------|
B|--------------------------------------------(5+)-------------------------|
G|---------------------------------------------5+--------------------------|
D|------5--5-5--x-5-------5------------------------------------------------|
A|-5555-5--5-5--x-5--5555-5-pause------------------------------------------|
E|-5555-5--5-5--x-5--5555-5------------------------------------------------|
   ....              ....
g2 right speaker
e|--------------------------------------------(5+)-------------------------|
B|--------------------------------------------(5+)-------------------------|
G|---------------------------------------------5+--------------------------|
D|-pause---------------------------5--5-5--x-5-----------------------------|
A|----------------------------5555-5--5-5--x-5-----------------------------|
E|----------------------------5555-5--5-5--x-5-----------------------------|
                              ....
-bridge 1

brigde 2(this is the guitar harmony near the end of the song)
g1"from behind these walls i thought were safe"
e|-------------------------------------------------------------------------|
B|-------------------------------------------------------------------------|
G|-----------------2h3p2--------------------2h3p2--------------------------|
D|------5--5-5--5--------3~------5--5-5--5-------3~------------------------|
A|-5555-5--5-5--5-----------5555-5--5-5--5---------------------------------|
E|-5555-5--5-5--5-----------5555-5--5-5--5---------------------------------|
   ....                     ....

g2
e|-------------------------------------------------------------------------|
B|-------------------------------------------------------------------------|
G|----------------5h7p5---------------------5h7p5--------------------------|
D|------5--5-5--5-------7~-------5--5-5--5--------7~-----------------------|
A|-5555-5--5-5--5-----------5555-5--5-5--5---------------------------------|
E|-5555-5--5-5--5-----------5555-5--5-5--5---------------------------------|
   ....                     ....
g1
e|-------------------------------------------------------------------------|
B|-------------------------------------------------------------------------|
G|----------------2h3p2--------------------2h3p2--5~-----------------------|
D|------1--1-1--1-------3~-------3--3-3--3---------------------------------|
A|-1111-1--1-1--1-----------3333-3--3-3--3---------------------------------|
E|-1111-1--1-1--1-----------3333-3--3-3--3---------------------------------|
   ....                     ....
g2
e|-------------------------------------------------------------------------|
B|-------------------------------------------------------------------------|
G|----------------5h7p5---------------------5h7p5--8~----------------------|
D|------1--1-1--1-------7~--------3--3-3--3--------------------------------|
A|-1111-1--1-1--1------------3333-3--3-3--3--------------------------------|
E|-1111-1--1-1--1------------3333-3--3-3--3--------------------------------|
   ....                      ....

g1 and g2
e|-------------------------------------------------------------------------|
B|-------------------------------------------------------------------------|
G|-------------------------------------------------------------------------|
D|-0~------------------------0~--------------------------------------------|
A|-0~------------------------0~--------------------------------------------|
E|-0~------------------------0~--------------------------------------------|

-intro

end on
e|-------------------------------------------------------------------------|
B|-------------------------------------------------------------------------|
G|-------------------------------------------------------------------------|
D|-1~----------------------------------------------------------------------|
A|-1~----------------------------------------------------------------------|
E|-1~----------------------------------------------------------------------|

thats it tell me how i did on my first tab. please leave me a comment!

One last thing i'd like to thank Don Trickler and Jake Bartko for showing me the basics 
this song. ;)

|(5+)optional note to play
| /  slide
| .  plam mute
| h  hammer-on
| p  pull-off
| ~  let ring
| +  natral harmonic
| x  mute note
| *  repeat (there are two of these one over the other and they are at the beging and 
of whats repeated if that makes sence)
ex:the arrows will show ppl who don't understand what i mean so they'll understand arrow is:=>

e|-------------------------------------------------------------------------|
B|*<=------------------hope that helps explain--------------------------=>*|
G|-------------------------------------------------------------------------|
D|-------------------------------------------------------------------------|
A|*<=-------------------------------------------------------------------=>*|
E|-------------------------------------------------------------------------|


http://profile.myspace.com/index.cfm?fuseaction=user.viewprofile&friendID=32585167
comments
We did not receive enough feedback on this tab! Please rate:
print report bad tab
1 2 3 4 5
I want to post or [tab]
guest
You may want to rate the tab now too:
select rating
Please do not post tabs as comments. Select "correction" instead!