Oops, an error
Loading. Please wait.

Casting Off tab

version 2
version 2

Whole song

29 views 1 this week
no commentswrite comment
1 2 3 4 5
3 more votes to show rating
add to favorites
×
Save as Personal and add changes to this tab that will be seen only by you. Learn more ›
×
You can save this tab as Personal to edit and correct it or add notes. All changes will be seen only by you. Learn more »
launch autoscroll
font size
0
reset
how to read this tab
guitar tuner
edit
Autoscroll
slow
fast
+/-
esc
set tempo
stop
Hey, everybody!
Here's how I think this song is played! I hope you all enjoy playing it!
Email me with any comments or questions at njbauch23@yahoo.com. This is a great
song, so have fun playing it. Good luck!

CASTING OFF
As recorded by This Beautiful Republic

Music by This Beautiful Republic
Transcribed by njbauch22

Gtr I (C# G# C# F# A# D#)
Gtr II (C# G# C# F# A# D#)

  Q=177
 4/4
  Gtr I
  E E E E E E E E   E E E E E E E E   E E E E E E E E   E E E E E E E E
|-----------------|-----------------|-----------------|------------------|
|-----------------|-----------------|-----------------|------------------|
|---------0-0-0-0-|-----------------|---------2-2-2-2-|---------4-2-2-2--|
|-2-2-2-2---------|---------4-4-4-4-|-----------------|------------------|
|-----------------|-----------------|-2-2-2-2---------|-2-2-2-2----------|
|-----------------|-5-5-5-5---------|-----------------|------------------|


 4/4
   E E  E E  E  E  E  E    E E  E E  E  E  E  E
|-----------------------|-----------------------|
|-----------------------|-----------------------|
|------------0--0--0--0-|-----------------------|
|--2-2--2-2-------------|------------4--4--4--4-|
|-----------------------|-----------------------|
|-----------------------|--5-5--5-5-------------|
|
| Gtr II
|  E E  E E  E  E  E  E    E E  E E  E  E  E  E
|-----------------------|-----------------------|
|-12---12---12-10-12-10-|-12---12---12-10-12-10-|
|-11---11---11-11-11-11-|-11---11---11-11-11-11-|
|-----------------------|-----------------------|
|-----------------------|-----------------------|
|-----------------------|-----------------------|


   E E  E E  E  E  E E    E E  E E  E  E  E E
|----------------------|-----------------------|
|----------------------|-----------------------|
|----------------------|------------4--2--2-2--|
|----------------------|-----------------------|
|--2-2--2-2--0--0--0-0-|--2-2--2-2-------------|
|----------------------|-----------------------|
|
|  E E  E E  E  E  E E    E E  E E  E  E  E E
|----------------------|-----------------------|
|-15---15---15-15-15---|-15---15---15-15-15----|
|-14---14---14-14-14---|-14---14---14-14-14----|
|----------------------|-----------------------|
|----------------------|-----------------------|
|----------------------|-----------------------|


   E E  E E  E E  E E    E E  E E  E E  E E
|---------------------|---------------------|
|---------------------|---------------------|
|------------0-0--0-0-|---------------------|
|--2-2--2-2-----------|------------4-4--4-4-|
|---------------------|---------------------|
|---------------------|--5-5--5-5-----------|
|
|  E E  E E  E E  E E    E E  E E  E E  E E
|---------------------|---------------------|
|-12---12---12---12---|-12---12---12---12---|
|-11---11---11---11---|-11---11---11---11---|
|---------------------|---------------------|
|---------------------|---------------------|
|---------------------|---------------------|


   E E  E E  E E  E E    E E  E E  E  E  E E
|---------------------|----------------------|
|---------------------|----------------------|
|------------2-2--2-2-|------------4--2--2-2-|
|---------------------|----------------------|
|--2-2--2-2-----------|--2-2--2-2------------|
|---------------------|----------------------|
|
|  E E  E E  E E  E E    E E  E E  E  E  E E
|---------------------|----------------------|
|-15---15---15---15---|-15---15---15-14-14---|
|-14---14---14---14---|-14---14---14-14-14---|
|---------------------|----------------------|
|---------------------|----------------------|
|---------------------|----------------------|


   E E  E E  E E  E E    E E  E E  E E  E E
|---------------------|---------------------|
|---------------------|---------------------|
|------------0-0--0-0-|---------------------|
|--2-2--2-2-----------|------------4-4--4-4-|
|---------------------|---------------------|
|---------------------|--5-5--5-5-----------|
|
|  E E  E E  E E  E E    E E  E E  E E  E E
|---------------------|---------------------|
|-12---12---12---12---|-12---12---12---12---|
|-11---11---11---11---|-11---11---11---11---|
|---------------------|---------------------|
|---------------------|---------------------|
|---------------------|---------------------|


   E E  E E  E E  E E    E E  E E  E  E  E E
|---------------------|----------------------|
|---------------------|----------------------|
|------------2-2--2-2-|------------4--2--2-2-|
|---------------------|----------------------|
|--2-2--2-2-----------|--2-2--2-2------------|
|---------------------|----------------------|
|
|  E E  E E  E E  E E    E E  E E  E  E  E E
|---------------------|----------------------|
|-15---15---15---15---|-15---15---15-14-14---|
|-14---14---14---14---|-14---14---14-14-14---|
|---------------------|----------------------|
|---------------------|----------------------|
|---------------------|----------------------|


   E E  E E  E  E  E  E    E E  E E  E  E  E  E
|-----------------------|-----------------------|
|-----------------------|-----------------------|
|------------0--0--0--0-|-----------------------|
|--2-2--2-2-------------|------------4--4--4--4-|
|-----------------------|-----------------------|
|-----------------------|--5-5--5-5-------------|
|
|  E E  E E  E  E  E  E    E E  E E  E  E  E  E
|-----------------------|-----------------------|
|-12---12---12-10-12-10-|-12---12---12-10-12-10-|
|-11---11---11-11-11-11-|-11---11---11-11-11-11-|
|-----------------------|-----------------------|
|-----------------------|-----------------------|
|-----------------------|-----------------------|


   E E  E E  E  E  E E    E E  E E  E  E  E E
|----------------------|----------------------|
|----------------------|----------------------|
|------------2--2--2-2-|------------4--2--2-2-|
|----------------------|----------------------|
|--2-2--2-2------------|--2-2--2-2------------|
|----------------------|----------------------|
|
|  E E  E E  E  E  E E    E E  E E  E  E  E E
|----------------------|----------------------|
|-15---15---15-15-15---|-15---15---15-15-15---|
|-14---14---14-14-14---|-14---14---14-14-14---|
|----------------------|----------------------|
|----------------------|----------------------|
|----------------------|----------------------|


  Gtr II
   W           +W            W           +W
|-----------|-------------|-15--------|-(15)----|
|-10--------|-(10)--------|-----------|---------|
|-----------|-------------|-----------|---------|
|-----------|-------------|-----------|---------|
|-----------|-------------|-----------|---------|
|-----------|-------------|-----------|---------|


  Gtrs I, II
  Q  Q  Q  Q    Q  Q  Q  Q    Q  Q  Q  Q    Q  Q  Q  Q
|-------------|-------------|-------------|-------------|
|-------------|-------------|-------------|-------------|
|-------------|-------------|-------------|-------------|
|-0--0--0--0--|-0--0--0--0--|-0--0--0--0--|-0--0--0--0--|
|-0--0--0--0--|-0--0--0--0--|-0--0--0--0--|-0--0--0--0--|
|-0--0--0--0--|-0--0--0--0--|-0--0--0--0--|-0--0--0--0--|


  Q  Q  Q  Q    Q  Q  Q  Q    Q  Q  Q  Q    Q  Q  Q  Q
|-------------|-------------|-------------|-------------|
|-------------|-------------|-------------|-------------|
|-------------|-------------|-------------|-------------|
|-5--5--5--5--|-5--5--5--5--|-5--5--5--5--|-2--2--2--2--|
|-5--5--5--5--|-5--5--5--5--|-5--5--5--5--|-2--2--2--2--|
|-5--5--5--5--|-5--5--5--5--|-5--5--5--5--|-2--2--2--2--|


  Q  Q  Q  Q    Q  Q  Q  Q    Q  Q  Q  Q    Q  Q  Q  Q
|-------------|-------------|-------------|-------------|
|-------------|-------------|-------------|-------------|
|-------------|-------------|-------------|-------------|
|-0--0--0--0--|-0--0--0--0--|-0--0--0--0--|-0--0--0--0--|
|-0--0--0--0--|-0--0--0--0--|-0--0--0--0--|-0--0--0--0--|
|-0--0--0--0--|-0--0--0--0--|-0--0--0--0--|-0--0--0--0--|


  Q  Q  Q  Q    Q  Q  Q  Q    Q  Q  Q  Q    H    H
|-------------|-------------|-------------|-----------|
|-------------|-------------|-------------|-----------|
|-------------|-------------|-------------|-----------|
|-5--5--5--5--|-5--5--5--5--|-9--9--9--9--|-7----0----|
|-5--5--5--5--|-5--5--5--5--|-9--9--9--9--|-7----0----|
|-5--5--5--5--|-5--5--5--5--|-9--9--9--9--|-7----0----|


  Gtr II
  E E E E E E E E   E E E E E E E E   E E E E E E E E   E E E E E E E E
|---------5-5-5-5-|---------5-5-5-5-|---------5-5-5-5-|---------5-5-5-5-|
|-----------------|-----------------|-----------------|-----------------|
|-4-4-4-4---------|-4-4-4-4---------|-4-4-4-4---------|-4-4-4-4---------|
|-----------------|-----------------|-----------------|-----------------|
|-----------------|-----------------|-----------------|-----------------|
|-----------------|-----------------|-----------------|-----------------|


   E  E E  E Q   Q     E  E E  E Q   Q
|-------------------|-------------------|
|-------------------|-------------------|
|----------0-----0--|-------------------|
|--2--2-------------|----------4-----4--|
|-------------------|-------------------|
|-------------------|--5--5-------------|
|
|  E  E E  E Q   Q     E  E E  E Q   Q
|-------------------|-------------------|
|-10-10---12----12--|-10-10---12----12--|
|-11-11---11----11--|-11-11---11----11--|
|-------------------|-------------------|
|-------------------|-------------------|
|-------------------|-------------------|


   E  E E  E Q   Q     E  E E  E Q   Q
|-------------------|-------------------|
|-------------------|-------------------|
|----------2-----2--|----------4-----2--|
|-------------------|-------------------|
|--2--2-------------|--2--2-------------|
|-------------------|-------------------|
|
|  E  E E  E Q   Q     E  E E  E Q   Q
|-------------------|-------------------|
|-15-15---15----15--|-15-15---14----14--|
|-14-14---14----14--|-14-14---14----14--|
|-------------------|-------------------|
|-------------------|-------------------|
|-------------------|-------------------|


   E  E E  E Q   Q     E  E E  E Q   Q
|-------------------|-------------------|
|-------------------|-------------------|
|----------0-----0--|-------------------|
|--2--2-------------|----------4-----4--|
|-------------------|-------------------|
|-------------------|--5--5-------------|
|
|  E  E E  E Q   Q     E  E E  E Q   Q
|-------------------|-------------------|
|-10-10---12----12--|-10-10---12----12--|
|-11-11---11----11--|-11-11---11----11--|
|-------------------|-------------------|
|-------------------|-------------------|
|-------------------|-------------------|


   E  E E  E Q   Q     E  E E  E  E  E  E  E
|-------------------|------------------------|
|-------------------|------------------------|
|----------2-----2--|----------4--4--2--2--2-|
|-------------------|------------------------|
|--2--2-------------|--2--2------------------|
|-------------------|------------------------|
|
|  E  E E  E Q   Q     E  E E  E  E  E  E  E
|-------------------|------------------------|
|-15-15---15----15--|-15-15---14-14-14-14-14-|
|-14-14---14----14--|-14-14---14-14-14-14-14-|
|-------------------|------------------------|
|-------------------|------------------------|
|-------------------|------------------------|


   E E  E E  E  E  E  E    E E  E E  E  E  E  E
|-----------------------|-----------------------|
|-----------------------|-----------------------|
|------------0--0--0--0-|-----------------------|
|--2-2--2-2-------------|------------4--4--4--4-|
|-----------------------|-----------------------|
|-----------------------|--5-5--5-5-------------|
|
|  E E  E E  E  E  E  E    E E  E E  E  E  E  E
|-----------------------|-----------------------|
|-12---12---12-10-12-10-|-12---12---12-10-12-10-|
|-11---11---11-11-11-11-|-11---11---11-11-11-11-|
|-----------------------|-----------------------|
|-----------------------|-----------------------|
|-----------------------|-----------------------|


   E E  E E  E  E  E E    E E  E E  E  E  E E
|----------------------|----------------------|
|----------------------|----------------------|
|------------2--2--2-2-|------------4--2--2-2-|
|----------------------|----------------------|
|--2-2--2-2------------|--2-2--2-2------------|
|----------------------|----------------------|
|
|  E E  E E  E  E  E E    E E  E E  E  E  E E
|----------------------|----------------------|
|-15---15---15-15-15---|-15---15---15-15-15---|
|-14---14---14-14-14---|-14---14---14-14-14---|
|----------------------|----------------------|
|----------------------|----------------------|
|----------------------|----------------------|


  Gtr II
   W           +W            W           +W
|-----------|-------------|-15--------|-(15)----|
|-10--------|-(10)--------|-----------|---------|
|-----------|-------------|-----------|---------|
|-----------|-------------|-----------|---------|
|-----------|-------------|-----------|---------|
|-----------|-------------|-----------|---------|


  Gtrs I, II
  Q  Q  Q  Q    Q  Q  Q  Q    Q  Q  Q  Q    Q  Q  Q  Q
|-------------|-------------|-------------|-------------|
|-------------|-------------|-------------|-------------|
|-------------|-------------|-------------|-------------|
|-0--0--0--0--|-0--0--0--0--|-0--0--0--0--|-0--0--0--0--|
|-0--0--0--0--|-0--0--0--0--|-0--0--0--0--|-0--0--0--0--|
|-0--0--0--0--|-0--0--0--0--|-0--0--0--0--|-0--0--0--0--|


  Q  Q  Q  Q    Q  Q  Q  Q    Q  Q  Q  Q    Q  Q  Q  Q
|-------------|-------------|-------------|-------------|
|-------------|-------------|-------------|-------------|
|-------------|-------------|-------------|-------------|
|-5--5--5--5--|-5--5--5--5--|-5--5--5--5--|-2--2--2--2--|
|-5--5--5--5--|-5--5--5--5--|-5--5--5--5--|-2--2--2--2--|
|-5--5--5--5--|-5--5--5--5--|-5--5--5--5--|-2--2--2--2--|


  Q  Q  Q  Q    Q  Q  Q  Q    Q  Q  Q  Q    Q  Q  Q  Q
|-------------|-------------|-------------|-------------|
|-------------|-------------|-------------|-------------|
|-------------|-------------|-------------|-------------|
|-0--0--0--0--|-0--0--0--0--|-0--0--0--0--|-0--0--0--0--|
|-0--0--0--0--|-0--0--0--0--|-0--0--0--0--|-0--0--0--0--|
|-0--0--0--0--|-0--0--0--0--|-0--0--0--0--|-0--0--0--0--|


  Q  Q  Q  Q    Q  Q  Q  Q    Q  Q  Q  Q    H    H
|-------------|-------------|-------------|-----------|
|-------------|-------------|-------------|-----------|
|-------------|-------------|-------------|-----------|
|-5--5--5--5--|-5--5--5--5--|-9--9--9--9--|-7----0----|
|-5--5--5--5--|-5--5--5--5--|-9--9--9--9--|-7----0----|
|-5--5--5--5--|-5--5--5--5--|-9--9--9--9--|-7----0----|


  Gtr II
  E E E E E E E E   E E E E E E E E   E E E E E E E E   E E E E E E E E
|---------5-5-5-5-|---------5-5-5-5-|---------5-5-5-5-|---------5-5-5-5-|
|-----------------|-----------------|-----------------|-----------------|
|-4-4-4-4---------|-4-4-4-4---------|-4-4-4-4---------|-4-4-4-4---------|
|-----------------|-----------------|-----------------|-----------------|
|-----------------|-----------------|-----------------|-----------------|
|-----------------|-----------------|-----------------|-----------------|


  Gtr I
  PM-------------------------------------------------|
  Q  Q  Q  Q    Q  Q  Q  Q    Q  Q  Q  Q    Q  Q  Q  Q
|-------------|-------------|-------------|-------------|
|-------------|-------------|-------------|-------------|
|-4--4--4--4--|-4--4--4--4--|-------------|-------------|
|-4--4--4--4--|-4--4--4--4--|-0--0--0--0--|-0--0--0--0--|
|-2--2--2--2--|-2--2--2--2--|-0--0--0--0--|-0--0--0--0--|
|-------------|-------------|-0--0--0--0--|-0--0--0--0--|


  PM-------------------------------------------------|
  Q  Q  Q  Q    Q  Q  Q  Q    Q  Q  Q  Q    Q  Q  Q  Q
|-------------|-------------|-------------|-------------|
|-------------|-------------|-------------|-------------|
|-------------|-------------|-------------|-------------|
|-2--2--2--2--|-0--0--0--0--|-9--9--9--9--|-7--7--7--7--|
|-2--2--2--2--|-0--0--0--0--|-9--9--9--9--|-7--7--7--7--|
|-2--2--2--2--|-0--0--0--0--|-9--9--9--9--|-7--7--7--7--|


  PM-------------------------------------------------|
  Q  Q  Q  Q    Q  Q  Q  Q    Q  Q  Q  Q    Q  Q  Q  Q
|-------------|-------------|-------------|-------------|
|-------------|-------------|-------------|-------------|
|-4--4--4--4--|-4--4--4--4--|-------------|-------------|
|-4--4--4--4--|-4--4--4--4--|-0--0--0--0--|-0--0--0--0--|
|-2--2--2--2--|-2--2--2--2--|-0--0--0--0--|-0--0--0--0--|
|-------------|-------------|-0--0--0--0--|-0--0--0--0--|


  PM---------------------|
  Q  Q  Q  Q    Q  Q  Q  Q
|-------------|-------------|
|-------------|-------------|
|-------------|-------------|
|-2--2--2--2--|-2--2--2--2--|
|-2--2--2--2--|-2--2--2--2--|
|-2--2--2--2--|-2--2--2--2--|


  Gtr I
  E E E E E E E E   E E E E E E E E   E E E E E E E E
|-5-5-5-5-5-5-5-5-|-5-5-5-5-5-5-5-5-|-5-5-5-5-5-5-5-5-|
|-----------------|-----------------|-----------------|
|-----------------|-----------------|-----------------|
|-----------------|-----------------|-----------------|
|-----------------|-----------------|-----------------|
|-----------------|-----------------|-----------------|
|
| Gtr II
| E E E E E E E E   E E E E E E E E   E E E E E E E E
|---------5-5-5-5-|---------5-5-5-5-|---------5-5-5-5-|
|-----------------|-----------------|-----------------|
|-4-4-4-4---------|-4-4-4-4---------|-4-4-4-4---------|
|-----------------|-----------------|-----------------|
|-----------------|-----------------|-----------------|
|-----------------|-----------------|-----------------|


  Gtrs I, II
  Q  Q  Q  Q    Q  Q  Q  Q    Q  Q  Q  Q    Q  Q  Q  Q
|-------------|-------------|-------------|-------------|
|-------------|-------------|-------------|-------------|
|-------------|-------------|-------------|-------------|
|-0--0--0--0--|-0--0--0--0--|-0--0--0--0--|-0--0--0--0--|
|-0--0--0--0--|-0--0--0--0--|-0--0--0--0--|-0--0--0--0--|
|-0--0--0--0--|-0--0--0--0--|-0--0--0--0--|-0--0--0--0--|


  Q  Q  Q  Q    Q  Q  Q  Q    Q  Q  Q  Q    Q  Q  Q  Q
|-------------|-------------|-------------|-------------|
|-------------|-------------|-------------|-------------|
|-------------|-------------|-------------|-------------|
|-5--5--5--5--|-5--5--5--5--|-5--5--5--5--|-2--2--2--2--|
|-5--5--5--5--|-5--5--5--5--|-5--5--5--5--|-2--2--2--2--|
|-5--5--5--5--|-5--5--5--5--|-5--5--5--5--|-2--2--2--2--|


  Q  Q  Q  Q    Q  Q  Q  Q    Q  Q  Q  Q    Q  Q  Q  Q
|-------------|-------------|-------------|-------------|
|-------------|-------------|-------------|-------------|
|-------------|-------------|-------------|-------------|
|-0--0--0--0--|-0--0--0--0--|-0--0--0--0--|-0--0--0--0--|
|-0--0--0--0--|-0--0--0--0--|-0--0--0--0--|-0--0--0--0--|
|-0--0--0--0--|-0--0--0--0--|-0--0--0--0--|-0--0--0--0--|


  Q  Q  Q  Q    Q  Q  Q  Q    Q  Q  Q  Q    H    H
|-------------|-------------|-------------|-----------|
|-------------|-------------|-------------|-----------|
|-------------|-------------|-------------|-----------|
|-5--5--5--5--|-5--5--5--5--|-9--9--9--9--|-7----0----|
|-5--5--5--5--|-5--5--5--5--|-9--9--9--9--|-7----0----|
|-5--5--5--5--|-5--5--5--5--|-9--9--9--9--|-7----0----|


  Gtr II
  E E E E E E E E   E E E E E E E E   E E E E E E E E   E E E E E E E E
|---------5-5-5-5-|---------5-5-5-5-|---------5-5-5-5-|---------5-5-5-5-|
|-----------------|-----------------|-----------------|-----------------|
|-4-4-4-4---------|-4-4-4-4---------|-4-4-4-4---------|-4-4-4-4---------|
|-----------------|-----------------|-----------------|-----------------|
|-----------------|-----------------|-----------------|-----------------|
|-----------------|-----------------|-----------------|-----------------|


  Gtrs I, II
  Q  Q  Q  Q    Q  Q  Q  Q    Q  Q  Q  Q    Q  Q  Q  Q
|-------------|-------------|-------------|-------------|
|-------------|-------------|-------------|-------------|
|-------------|-------------|-------------|-------------|
|-------------|-------------|-------------|-------------|
|----4--5-----|-4--5--4--5--|----4--5--4--|-7--5--4--5--|
|-4--------4--|-------------|-4-----------|-------------|


  Q  Q  Q  Q    Q  Q  Q  Q    Q  Q  Q  Q    Q  Q  H
|-------------|-------------|-------------|------------|
|-------------|-------------|-------------|------------|
|-------------|-------------|-------------|------------|
|-------------|-------------|-------------|------------|
|----4--5-----|-4--5--4--5--|----4--5--4--|-------5----|
|-4--------4--|-------------|-4-----------|-5--4-------|


Duration Legend
---------------
W - whole; H - half; Q - quarter; E - 8th; S - 16th; T - 32nd; X - 64th;
a - acciaccatura; Duration letters will always appear directly above the note/fret number
it represents the duration for; Duration letters with no fret number below them represent
rests.

            
            
Suggest correction
Creating personal tab
Creating personal tab
You can edit any tab online and save it as your Personal.

You can edit, replace or remove any tab part or add personal notes – all changes will be seen only by you.

Personal tabs can be accessed anytime from any device, even offline.
Learn more »
Give kudos to tab author, rate the tab!
1 2 3 4 5
comments
print report bad tab
guest
You may want to rate the tab now too:
select rating
Wanna post a correction for this tab? Suggest correction