Oops, an error
Loading. Please wait.

Chronic Town Tab

316 views 1 this week
no commentswrite comment
1 2 3 4 5
2 more votes to show rating
add to favorites
launch autoscroll
font size
0
reset
how to read this tab
guitar tuner
Autoscroll
slow
fast
+/-
esc
set tempo
stop
Help us to improve Ultimate-Guitar.com Take our survey!
×
Author
Difficulty
intermediate
Key : C#m
Time Signature : 6/8


Intro (For lead guitar see bottom of the tab)

C#m

Verse
             E
Its not our war (not this time)
                           G#
Youre hands tied to the floor (not this time)
                 C#m
Real problems ignored (give up the fight)
             A
Til we fall apart (but well never die)
          C#m
In those hands (were all free)
         G#
That we hold onto
       C#m
And we go

Chorus

               E
Were all man-made (I have been saved)
                    G#
Were all built the same (I have been saved)
       C#m
And we run

             E
Give up the fight (the human I have been)

Drop it now (the human I could be)
                  G#
With all youre might (once youve abandoned all)
         C#
And let go (the faith you had in me)

Chorus Riff
     E
E|-------------7-----7h11p7-------------------------7-----------------------|
B|-------9-------------------9-----9----------9-----------------------------|
G|--8h9-----9-----9-------------9-----9--8h9-----9-----9--9------8----------|
D|----------------------------------------------------------------------10--|
A|--------------------------------------------------------------------------|
E|--------------------------------------------------------------------------|


     G#
E|-----------------------------------------------------|
B|-----------------------------------------------------|
G|--13------------10--------------13------------17-----|
D|-----------------------------------------------------|
A|--11------------8---------------11------------15-----|
E|-----------------------------------------------------|



          A            G#
Give us love
        C#m
Or we walk



Bridge Riff (Its cute you think youre going home (have I been saved?))
E|--------------------|
B|--------------------|
G|--------------------|
D|-----6--4--------4--|
A|--4-----------------|
E|-----------5--4-----|  x 8


5th time harmony
E|-------------------------|
B|-------------------------|
G|--------------9----------|
D|------11--10-----11--10--|
A|--11---------------------|
E|-------------------------|  x 4



A           G#
Whoa oh oh oh ohhh
C#m
Alive! Alive! Alive! Alive! x 3


Alive riff

   C#m
E|-4---7/9-------------7---|
B|---5-----5-------5-------|
G|-----------6-4-6---6---6-|   x 4
D|-------------------------|
A|-------------------------|
E|-------------------------|


4th time
Gtr 1
E|--------------------------------------|
B|--------------------------------------|
G|--------------------------------------|
D|--7--7--7--7--9--7--6--6--6--6--6--6--|
A|--------------------------------------|
E|--5--5--5--5--7--5--4--4--4--4--4--4--|


Gtr 2
E|--------------------------------------|
B|--------------------------------------|
G|--------------------5--6--8--8--6--5--|
D|--7--7--7--7--9--7--------------------|
A|--------------------3--4--6--6--4--3--|
E|--5--5--5--5--7--5--------------------|


Gtr 3
E|-----------------------------------------|
B|-----------------------------10--12--13--|
G|--6--9--13--11--9--8--9--11--------------|
D|-----------------------------7---9---10--|
A|--4--7--11--9---7--6--7--9---------------|
E|-----------------------------------------|




               E
Were all man-made (I have been saved)
                    G#
Were all built the same (I have been saved)
       C#m
And we run




Intro/Verse Lead (played with sweep echo and reverb)

   C#m
E|-4---7/9-------------7---|
B|---5-----5-------5-------|
G|-----------6-4-6---6---6-|   x 4
D|-------------------------|
A|-------------------------|
E|-------------------------|


    E
E|-7p4---------------------7-12-7----------------------|
B|-----5-----------------9--------9--------------------|
G|-------4-------4-6-8-9------------9-8---------8------|
D|---------6---6------------------------11-9-11---9----|
A|-----------7--------------------------------------11-|
E|-----------------------------------------------------|


    G#
E|---------------8-8-----8-8-11-11-8-8---------------------|
B|-----------9-9-----9-9---------------9-9-----------------|
G|-------8-8-------------------------------8-8-------------|
D|-10-10---------------------------------------10-10-------|
A|---------------------------------------------------11-11-|
E|---------------------------------------------------------|

   C#m
Let ring..........................................
E|---------4-----------4-----------4-----------4---|
B|-----5-----------5-----------5-----------5-------|
G|-6-----------6-----------6-----------6-----------|
D|---6---6---6---6---6---6---6---6---6---6---6---6-|
A|-------------------------------------------------|
E|-------------------------------------------------|

    A
  ...................................
E|---------5-----------5-----------5---5-5-5-|
B|-----5-----------5-----------5-------5-5-5-|
G|-6-----------6-----------6-----------6-6-6-|
D|---7---7---7---7---7---7---7---7---7-7-7-7-|
A|-------------------------------------------|
E|-------------------------------------------|


   C#m
E|-4---7/9-------------7---4---7/9-------------7---|
B|---5-----5-------5---------5-----5-------5-------|
G|-----------6-4-6---6---6-----------6-4-6---6---6-|
D|-------------------------------------------------|
A|-------------------------------------------------|
E|-------------------------------------------------|


   G#
E|-4---8/11-8-------8-11-8---8---14-11-------------------------|
B|---4--------9---9--------9---9-------13----------13----------|
G|--------------8-------------------------14-11-14----14-11----|
D|----------------------------------------------------------13-|
A|-------------------------------------------------------------|
E|-------------------------------------------------------------|


#longlivethisgoodrobot
www.thisgoodrobot.com
Suggest correction
Give kudos to tab author, rate the tab!
1 2 3 4 5
comments
print report bad tab
guest
You may want to rate the tab now too:
select rating
Wanna post a correction for this tab? Suggest correction