Oops, an error
Loading. Please wait.

Dear Carolina Tab

451 views 1 this week
2 commentsread comments
1 2 3 4 5
please rate
add to favorites
launch autoscroll
font size
0
reset
how to read this tab
guitar tuner
Autoscroll
slow
fast
+/-
esc
set tempo
stop
Help us to improve Ultimate-Guitar.com Take our survey!
×
Author
Difficulty
intermediate
This Love - Dear Carolina (NOT the acoustic version)

Tuning: eadgbe

intro:

e|-------------------------------------------------|
b|-------------------------------------------------|
g|-12-12-12-12-19-19-19-19-11-11-11-11-17-17-16-16-|
d|-------------------------------------------------|
a|-------------------------------------------------|
e|-------------------------------------------------|


e|----------------------------------------------------|
b|----------------------------------------------------|
g|-12-12-12-12-19-19-19-19-11-11-11-11-17-17-11-11-12-|
d|----------------------------------------------------|
a|----------------------------------------------------|
e|----------------------------------------------------|



post intro

e|-3--------------------------------------------------|
b|---3------------------------------------------------|
g|-----0----------------------------------------------|
d|----------------------------------------------------|
a|----------------------------------------------------|
e|----------------------------------------------------|


verse: (1x at each chord)

G, D, A, (silence), 
G, D, A, BM,
G, D, A, BM,
G, D, A, BM



1:28:

gitar 2:



e|----------------------------------------------------|
b|----------------------------------------------------|
g|-9/11-12--14\12--9/11-12--11------------------------|
d|----------------------------------------------------|
a|----------------------------------------------------|
e|----------------------------------------------------|




bridge:


e|----------------------------------------------------|
b|----------------------------------------------------|
g|-9/11-12--14\12--9/11-12--11-12---------------------|
d|----------------------------------------------------|
a|----------------------------------------------------|
e|----------------------------------------------------|



chorus:



e|-------------------------------------------------|
b|-------------------------------------------------|
g|-12-12-12-12-19-19-19-19-11-11-11-11-17-17-16-16-|
d|-------------------------------------------------|
a|-------------------------------------------------|
e|-------------------------------------------------|


e|----------------------------------------------------|
b|----------------------------------------------------|
g|-12-12-12-12-19-19-19-19-11-11-11-11-17-17-16-16-12-|
d|----------------------------------------------------|
a|----------------------------------------------------|
e|----------------------------------------------------|


outtro: chorus x3. Hold hold the last note.
Suggest correction
Give kudos to tab author, rate the tab!
1 2 3 4 5
comments
print report bad tab
2 comments total.
0 reply
flipsern 115 wrote on September 5 2012, 10:15 am

Sorry about the chords, i didnt realize theyre wrong untill now xP the correct should be something like this i believe:

G - C - G - D

G C D
E|--3----3----2--|
B|--3----3----3--|
G|--0----0----2--|
D|--0----2----0--|
A|--2----3-------|
E|--3------------|

0 reply
flipsern 115 wrote on September 5 2012, 10:17 am

*

G C D
E|--3----3----2--|
B|--3----3----3--|
G|--0----0----2--|
D|--0----2----0--|
A|--2----3-------|
E|--3------------|

guest
You may want to rate the tab now too:
select rating
Please do not post tabs as comments. Select "correction" instead!