Oops, an error
Loading. Please wait.

Revenant tab

version 1
version 1

Whole song

Interactive

637 views 3 this week
no commentswrite comment
1 2 3 4 5
2 more votes to show rating
add to favorites
×
Save as Personal and add changes to this tab that will be seen only by you. Learn more ›
×
You can save this tab as Personal to edit and correct it or add notes. All changes will be seen only by you. Learn more »
launch autoscroll
font size
0
reset
how to read this tab
guitar tuner
edit
Autoscroll
slow
fast
+/-
esc
set tempo
stop
Hey!
This is my first tab I wrote (done with Guitar Pro 5) for the song "Revenant" by the 
awesome band This or the Apocalypse. Check out the Guitar Pro Version for more Overview.

It's 99% accurate, there is just one part unclear to me, which is last the last section 
of the Chorus before the Breakdown

(Tab by Rene Möllenbeck)
________________________________________________
LEAD GUITAR!

           PM PM PM      PM PM PM
       E   S  S  E   E   S  S  E   E   E
C#||--------------------------------------|
G#||--------------------------------------|
E ||--12------------12--------------------|
B ||------------------------------12--13--|
F#||------10-10-10------10-10-10----------|
B ||--------------------------------------|


       PM PM PM      PM      PM
   E   S  S  E   E   E   E   E   E
------------------------------------|
------------------------------------|
--14------------14------10------10--|
------12-12-12------12------12------|
------------------------------------|
------------------------------------|


       PM PM PM      PM PM PM
   E   S  S  E   E   S  S  E   E   E
--------------------------------------|
--------------------------------------|
--14------------14--------------------|
------------------------------12--13--|
------10-10-10------10-10-10----------|
--------------------------------------|


   E   E   E   E   E   E   E   E
----------------------------------|
--11------13--10------------------|
------12----------11--------------|
----------------------12--10------|
------------------------------12--|
----------------------------------|


       PM PM PM      PM PM PM
   E   S  S  E   E   S  S  E   E   E
--------------------------------------|
--------------------------------------|
--12------------12--------------------|
------------------------------12--13--|
------10-10-10------10-10-10----------|
--------------------------------------|


       PM PM PM      PM      PM
   E   S  S  E   E   E   E   E   E
------------------------------------|
------------------------------------|
--14------------14------10------10--|
------12-12-12------12------12------|
------------------------------------|
------------------------------------|


       PM PM PM      PM PM PM
   E   S  S  E   E   S  S  E   E   E
--------------------------------------|
--------------------------------------|
--14------------14--------------------|
------------------------------10--12--|
------10-10-10------10-10-10----------|
--------------------------------------|


   PM PM PM PM PM PM PM PM     PM
   S  S  S  S  S  S  S  S  E   E   E   E
-------------------------------------------|
-------------------------------------------|
--------------------------14------14--15b--|
--13-13-10-10-16-16-13-13-----13-----------|
-------------------------------------------|
-------------------------------------------|


       PM PM PM      PM PM PM
   E   S  S  E   E   S  S  E   E   E
--------------------------------------|
--------------------------------------|
--12------------12--------------------|
------------------------------12--13--|
------10-10-10------10-10-10----------|
--------------------------------------|


       PM PM PM
   E   S  S  E   E   E   E   E   E
------------------------------------|
------------------------------------|
--12------------15--14--------------|
------------------------15----------|
------10-10-10--------------17--13--|
------------------------------------|


        PM    PM    PM
  Q     E  E  E  E  E  E
---------------------------|
---------------------------|
---------------------------|
---------------------------|
-----------5---------------|
--1b----0-----0--1--1--1b--|


     PM PM    PM    PM    PM
  E  S  S  E  E  E  E  E  E
-----------------------------|
-----------------------------|
-----------------------------|
-----------------------------|
-----------------5-----------|
--L--0--0--1--0-----0--1--0--|


       PM    PM    PM
  Q    E  E  E  E  E  E
-------------------------|
-------------------------|
-------------------------|
----------3--------------|
-------------------------|
--0----0-----0--0--0--0--|


  E  E  E  E  E  E  E  E
--------------------------|
--------------------------|
--------------2--3--2-----|
--------3--5-----------0--|
--------------------------|
--L--0--------------------|


        PM    PM    PM
  Q     E  E  E  E  E  E
---------------------------|
---------------------------|
---------------------------|
---------------------------|
-----------5---------------|
--1b----0-----0--1--1--1b--|


     PM PM    PM    PM    PM
  E  S  S  E  E  E  E  E  E
-----------------------------|
-----------------------------|
-----------------------------|
-----------------------------|
-----------------5-----------|
--L--0--0--1--0-----0--1--0--|


  E  E  E  E  E  E  E  E
--------------------------|
--------------------------|
--------------------------|
-----------7--7--7--------|
--------------------8--8--|
--5--5--5-----------------|


  E  E  E  E  E  E  E  E
--------------------------|
--------------------------|
-----------3--2-----------|
-----------------3--------|
--------------------5--1--|
--3--3--3-----------------|


        PM    PM    PM
  Q     E  E  E  E  E  E
---------------------------|
---------------------------|
---------------------------|
-----------3---------------|
---------------------------|
--1b----0-----0--1--1--1b--|


     PM PM    PM    PM    PM
  E  S  S  E  E  E  E  E  E
-----------------------------|
-----------------------------|
-----------------------------|
-----------------3-----------|
-----------------------------|
--L--0--0--1--0-----0--1--0--|


       PM    PM    PM
  Q    E  E  E  E  E  E
-------------------------|
-------------------------|
-------------------------|
----------3--------------|
-------------------------|
--0----0-----0--0--0--0--|


  E  E  E  E  E  E  E  E
--------------------------|
--------------1--3--1-----|
--------2--3-----------2--|
--------------------------|
--------------------------|
--L--0--------------------|


        PM    PM    PM
  Q     E  E  E  E  E  E
---------------------------|
---------------------------|
---------------------------|
-----------3---------------|
---------------------------|
--1b----0-----0--1--1--1b--|


     PM PM    PM    PM    PM
  E  S  S  E  E  E  E  E  E
-----------------------------|
-----------------------------|
-----------------------------|
-----------------3-----------|
-----------------------------|
--L--0--0--1--0-----0--1--0--|


  E  E  E  E  E  E  E  E
--------------------------|
--------------------------|
-----------5--5--5--------|
--------------------7--7--|
--------------------------|
--5--5--5-----------------|


  E  E  E  E  E  E  E  E
--------------------------|
-----------3--1-----------|
-----------------2--------|
--------------------3--0--|
--------------------------|
--3--3--3-----------------|


  TP                  TP
  W                   W
-------------------|-------------------|
-------------------|-------------------|
-------------------|-------------------|
--5----------------|--7----------------|
-------------------|-------------------|
-------------------|-------------------|


  TP                  TP        TP
  W                   H         H
-------------------|---------------------|
-------------------|---------------------|
-------------------|---------------------|
--8----------------|--8--------10--------|
-------------------|---------------------|
-------------------|---------------------|


   TP                   TP
   W                    W
--------------------|--------------------|
--------------------|--------------------|
--------------------|--------------------|
--12----------------|--13----------------|
--------------------|--------------------|
--------------------|--------------------|


   TP
   W
--------------------|
--------------------|
--11----------------|
--------------------|
--------------------|
--------------------|


   E   E   E   E   E   E   E   E
----------------------------------|
--11------13--10------------------|
------12----------11--------------|
----------------------12--10------|
------------------------------12--|
----------------------------------|


   E   E   E   E   E   E   E   E
----------------------------------|
----------------------------------|
----------------------------------|
----------12------10----------12--|
--10--13------10------10--13------|
----------------------------------|


   E   E   E   E   E   E   E   E
----------------------------------|
----------------------------------|
------------------------------10--|
----------10------12------10------|
--10--13------13------13----------|
----------------------------------|


   E   E   E   E   E   E   E   E
----------------------------------|
----------------------------------|
----------------------------------|
----------12------10----------12--|
--10--13------10------10--13------|
----------------------------------|


   E   E    E   E   E   E    E   E
------------------------------------|
---------------10------10s--11------|
------------------------------------|
--12--10s--12------12-----------12--|
------------------------------------|
------------------------------------|


   E   E   E   E   E   E   E   E
----------------------------------|
----------------------------------|
----------------------------------|
----------12------10----------12--|
--10--13------10------10--13------|
----------------------------------|


   E   E   E   E   E   E   E   E
----------------------------------|
----------------------------------|
------------------------------10--|
----------10------12------10------|
--10--13------13------13----------|
----------------------------------|


  I couldn't figure this one out yet
  E                                   E  E  E
----------------------------------------------|
----------------------------------------------|
----------------------------------------------|
--8h---------------------------------10--7--0-|
----------------------------------------------|
----------------------------------------------|


  E   E   E  E  E  E  E  E
----------------------------|
----------------------------|
----------------------------|
--5h--8p--7--0--4--0--1--3--|
----------------------------|
----------------------------|


        PM    PM    PM
  Q     E  E  E  E  E  E
---------------------------|
---------------------------|
---------------------------|
---------------------------|
-----------5---------------|
--1b----0-----0--1--1--1b--|


     PM PM    PM    PM    PM
  E  S  S  E  E  E  E  E  E
-----------------------------|
-----------------------------|
-----------------------------|
-----------------------------|
-----------------5-----------|
--L--0--0--1--0-----0--1--0--|


  E  E  E  E  E  E  E  E
--------------------------|
--------------------------|
--------------------------|
-----------7--7--7--------|
--------------------8--8--|
--5--5--5-----------------|


  E  E  E  E  E  E  E  E
--------------------------|
--------------------------|
-----------3--2-----------|
-----------------3--------|
--------------------5--1--|
--3--3--3-----------------|


        PM    PM    PM
  Q     E  E  E  E  E  E
---------------------------|
---------------------------|
---------------------------|
---------------------------|
-----------5---------------|
--1b----0-----0--1--1--1b--|


     PM PM    PM    PM    PM
  E  S  S  E  E  E  E  E  E
-----------------------------|
-----------------------------|
-----------------------------|
-----------------------------|
-----------------5-----------|
--L--0--0--1--0-----0--1--0--|


       PM    PM    PM
  Q    E  E  E  E  E  E
-------------------------|
-------------------------|
-------------------------|
----------3--------------|
-------------------------|
--0----0-----0--0--0--0--|


  E  E  E  E  E  E  E  E
--------------------------|
--------------------------|
--------------2--3--2-----|
--------3--5-----------0--|
--------------------------|
--L--0--------------------|


        PM    PM    PM
  Q     E  E  E  E  E  E
---------------------------|
---------------------------|
---------------------------|
---------------------------|
-----------5---------------|
--1b----0-----0--1--1--1b--|


     PM PM    PM    PM    PM
  E  S  S  E  E  E  E  E  E
-----------------------------|
-----------------------------|
-----------------------------|
-----------------------------|
-----------------5-----------|
--L--0--0--1--0-----0--1--0--|


  E  E  E  E  E  E  E  E
--------------------------|
--------------------------|
--------------------------|
-----------7--7--7--------|
--------------------8--8--|
--5--5--5-----------------|


  E  E  E  E  E  E  E  E
--------------------------|
--------------------------|
-----------3--2-----------|
-----------------3--------|
--------------------5--1--|
--3--3--3-----------------|


        PM    PM    PM
  Q     E  E  E  E  E  E
---------------------------|
---------------------------|
---------------------------|
-----------3---------------|
---------------------------|
--1b----0-----0--1--1--1b--|


     PM PM    PM    PM    PM
  E  S  S  E  E  E  E  E  E
-----------------------------|
-----------------------------|
-----------------------------|
-----------------3-----------|
-----------------------------|
--L--0--0--1--0-----0--1--0--|


       PM    PM    PM
  Q    E  E  E  E  E  E
-------------------------|
-------------------------|
-------------------------|
----------3--------------|
-------------------------|
--0----0-----0--0--0--0--|


  E  E  E  E  E  E  E  E
--------------------------|
--------------1--3--1-----|
--------2--3-----------2--|
--------------------------|
--------------------------|
--L--0--------------------|


        PM    PM    PM
  Q     E  E  E  E  E  E
---------------------------|
---------------------------|
---------------------------|
-----------3---------------|
---------------------------|
--1b----0-----0--1--1--1b--|


     PM PM    PM    PM    PM
  E  S  S  E  E  E  E  E  E
-----------------------------|
-----------------------------|
-----------------------------|
-----------------3-----------|
-----------------------------|
--L--0--0--1--0-----0--1--0--|


  E  E  E  E  E  E  E  E
--------------------------|
--------------------------|
-----------5--5--5--------|
--------------------7--7--|
--------------------------|
--5--5--5-----------------|


  E  E  E  E  E  E  E  E
--------------------------|
-----------3--1-----------|
-----------------2--------|
--------------------3--0--|
--------------------------|
--3--3--3-----------------|


  TP                  TP
  W                   W
-------------------|-------------------|
-------------------|-------------------|
-------------------|-------------------|
--5----------------|--7----------------|
-------------------|-------------------|
-------------------|-------------------|


  TP                  TP        TP
  W                   H         H
-------------------|---------------------|
-------------------|---------------------|
-------------------|---------------------|
--8----------------|--8--------10--------|
-------------------|---------------------|
-------------------|---------------------|


   TP                   TP
   W                    W
--------------------|--------------------|
--------------------|--------------------|
--------------------|--------------------|
--12----------------|--13----------------|
--------------------|--------------------|
--------------------|--------------------|


   TP
   W
--------------------|
--------------------|
--11----------------|
--------------------|
--------------------|
--------------------|


   E   E   E   E   E   E   E   E
----------------------------------|
--11------13--10------------------|
------12----------11--------------|
----------------------12--10------|
------------------------------12--|
----------------------------------|


   E   E   E   E   E   E   E   E
----------------------------------|
----------------------------------|
----------------------------------|
----------12------10----------12--|
--10--13------10------10--13------|
----------------------------------|


   E   E   E   E   E   E   E   E
----------------------------------|
----------------------------------|
------------------------------10--|
----------10------12------10------|
--10--13------13------13----------|
----------------------------------|


   E   E   E   E   E   E   E   E
----------------------------------|
----------------------------------|
----------------------------------|
----------12------10----------12--|
--10--13------10------10--13------|
----------------------------------|


   E   E    E   E   E   E    E   E
------------------------------------|
---------------10------10s--11------|
------------------------------------|
--12--10s--12------12-----------12--|
------------------------------------|
------------------------------------|


   E   E   E   E   E   E   E   E
----------------------------------|
----------------------------------|
----------------------------------|
----------12------10----------12--|
--10--13------10------10--13------|
----------------------------------|


   E   E   E   E   E   E   E   E
----------------------------------|
----------------------------------|
------------------------------10--|
----------10------12------10------|
--10--13------13------13----------|
----------------------------------|


  I couldn't figure this one out yet
  E                                   E  E  E
----------------------------------------------|
----------------------------------------------|
----------------------------------------------|
--8h---------------------------------10--7--0-|
----------------------------------------------|
----------------------------------------------|


  E   E   E  E  E  E  E  E
----------------------------|
----------------------------|
----------------------------|
--5h--8p--7--0--4--0--1--3--|
----------------------------|
----------------------------|


  E  S   S  E  E  S   S   S  S E  E
-------------------------------------|
-------------------------------------|
-------------------------------------|
--0--7h-10p-8--0--8h-12p-10p-0-7--0--|
-------------------------------------|
-------------------------------------|


  PM PM      PM PM      PM PM
  S  S   E   S  S   E   S  S   E   E  E
-----------------------------------------|
-----------------------------------------|
-----------------------------------------|
--0--0--12b--0--0--12b--0--0--10--13--0--|
-----------------------------------------|
-----------------------------------------|


  E  S   S  E  E  S   S   S  S E  E
-------------------------------------|
-------------------------------------|
-------------------------------------|
--0--7h-10p-8--0--8h-12p-10p-0-7--0--|
-------------------------------------|
-------------------------------------|


   PM PM PM PM PM PM PM PM     PM
   S  S  S  S  S  S  S  S  E   E   E   E
-------------------------------------------|
-------------------------------------------|
--------------------------14------14--15b--|
--13-13-10-10-16-16-13-13-----13-----------|
-------------------------------------------|
-------------------------------------------|


  E  S   S  E  E  S   S   S  S E  E
-------------------------------------|
-------------------------------------|
-------------------------------------|
--0--7h-10p-8--0--8h-12p-10p-0-7--0--|
-------------------------------------|
-------------------------------------|


  PM PM      PM PM      PM PM
  S  S   E   S  S   E   S  S   E   E  E
-----------------------------------------|
-----------------------------------------|
-----------------------------------------|
--0--0--12b--0--0--12b--0--0--10--13--0--|
-----------------------------------------|
-----------------------------------------|


  E  S   S  E  E  S   S   S  S E  E
-------------------------------------|
-------------------------------------|
-------------------------------------|
--0--7h-10p-8--0--8h-12p-10p-0-7--0--|
-------------------------------------|
-------------------------------------|


  PM PM      PM PM      PM PM
  S  S   E   S  S   E   S  S   E   E  E
-----------------------------------------|
-----------------------------------------|
-----------------------------------------|
--0--0--12b--0--0--12b--0--0--10--13--0--|
-----------------------------------------|
-----------------------------------------|


  E  S   S  E  E  S   S   S  S E  E
-------------------------------------|
-------------------------------------|
-------------------------------------|
--0--7h-10p-8--0--8h-12p-10p-0-7--0--|
-------------------------------------|
-------------------------------------|


  S   S   S  S E  E  E  E  E  E
---------------------------------|
---------------------------------|
---------------------------------|
--8h-12p-10p-0-7--0--5--0--4--5--|
---------------------------------|
---------------------------------|


  E  S   S  E  E  S   S   S  S E  E
-------------------------------------|
-------------------------------------|
-------------------------------------|
--0--7h-10p-8--0--8h-12p-10p-0-7--0--|
-------------------------------------|
-------------------------------------|


  PM PM      PM PM      PM PM
  S  S   E   S  S   E   S  S   E   E  E
-----------------------------------------|
-----------------------------------------|
-----------------------------------------|
--0--0--12b--0--0--12b--0--0--10--13--0--|
-----------------------------------------|
-----------------------------------------|


  E  S   S  E  E  S   S   S  S E  E
-------------------------------------|
-------------------------------------|
-------------------------------------|
--0--7h-10p-8--0--8h-12p-10p-0-7--0--|
-------------------------------------|
-------------------------------------|


   PM PM PM PM PM PM PM PM     PM
   S  S  S  S  S  S  S  S  E   E   E   E
-------------------------------------------|
-------------------------------------------|
--------------------------14------14--15b--|
--13-13-10-10-16-16-13-13-----13-----------|
-------------------------------------------|
-------------------------------------------|


  E  S   S  E  E  S   S   S  S E  E
-------------------------------------|
-------------------------------------|
-------------------------------------|
--0--7h-10p-8--0--8h-12p-10p-0-7--0--|
-------------------------------------|
-------------------------------------|


  PM PM      PM PM      PM PM
  S  S   E   S  S   E   S  S   E   E  E
-----------------------------------------|
-----------------------------------------|
-----------------------------------------|
--0--0--12b--0--0--12b--0--0--10--13--0--|
-----------------------------------------|
-----------------------------------------|


  E  S   S  E  E  S   S   S  S E  E
-------------------------------------|
-------------------------------------|
-------------------------------------|
--0--7h-10p-8--0--8h-12p-10p-0-7--0--|
-------------------------------------|
-------------------------------------|


  S   S   S  S E  E  E  E  E  E
---------------------------------|
---------------------------------|
---------------------------------|
--8h-12p-10p-0-7--0--5--0--4--5--|
---------------------------------|
---------------------------------|


  PM PM         PM PM PM PM
  E  E  E  Q    S  S  E  E
----------------------------|
----------------------------|
----------------------------|
----------------------------|
--0--0----------0--0--0--0--|
--0--0----------0--0--0--0--|


     PM PM PM PM PM PM PM PM PM PM
  E  S  S  E  E  S  S  S  S  E  E
-----------------------------------|
-----------------------------------|
-----------------------------------|
-----------------------------------|
-----0--0--0--0--0--0--0--0--0--0--|
-----0--0--0--0--0--0--0--0--0--0--|


  PM PM         PM PM PM PM
  E  E  E  Q    S  S  E  E
----------------------------|
----------------------------|
----------------------------|
----------------------------|
--0--0----------0--0--0--0--|
--0--0----------0--0--0--0--|


   PM PM PM PM PM PM PM PM     PM        PH
   S  S  S  S  S  S  S  S  E   E   E     E
---------------------------------------------|
---------------------------------------------|
--------------------------14------14--<>15b--|
--13-13-10-10-16-16-13-13-----13-------------|
---------------------------------------------|
---------------------------------------------|


  PM PM         PM PM PM PM
  E  E  E  Q    S  S  E  E
----------------------------|
----------------------------|
----------------------------|
----------------------------|
--0--0----------0--0--0--0--|
--0--0----------0--0--0--0--|


     PM PM PM PM PM PM PM PM PM PM
  E  S  S  E  E  S  S  S  S  E  E
-----------------------------------|
-----------------------------------|
-----------------------------------|
-----------------------------------|
-----0--0--0--0--0--0--0--0--0--0--|
-----0--0--0--0--0--0--0--0--0--0--|


  PM PM         PM PM PM PM
  E  E  E  Q    S  S  E  E
----------------------------|
----------------------------|
----------------------------|
----------------------------|
--0--0----------0--0--0--0--|
--0--0----------0--0--0--0--|


  S   S   S  S E  E  E  E  E  E
---------------------------------|
---------------------------------|
---------------------------------|
--8h-12p-10p-0-7--0--5--0--4--5--|
---------------------------------|
---------------------------------|


   E   E   E   E   E   E   E   E
----------------------------------|
----------------------------------|
--14----------14----------14------|
------13--10------13--10------13--|
----------------------------------|
----------------------------------|


   E   E   E   E   E   E   E   E
----------------------------------|
----------------------------------|
------14----------14--------------|
--10------13--10------13--12--13--|
----------------------------------|
----------------------------------|


   E   E   E   E   E   E   E   E
----------------------------------|
----------------------------------|
--15--15--15--17--17--17--14--14--|
----------------------------------|
----------------------------------|
----------------------------------|


   E   E   E   E   E   E   E   E
----------------------------------|
----------------------------------|
--14--14--14--14--11--11--11--11--|
----------------------------------|
----------------------------------|
----------------------------------|


   E   E   E   E   E   E   E   E
----------------------------------|
----------------------------------|
--14----------14----------14------|
------13--10------13--10------13--|
----------------------------------|
----------------------------------|


   E   E   E   E   E   E   E   E
----------------------------------|
----------------------------------|
------14----------14--------------|
--10------13--10------13--12--13--|
----------------------------------|
----------------------------------|


   E   E   E   E   E   E   E   E
----------------------------------|
----------------------------------|
----------------------------------|
--12--10--------------10--12--13--|
----------13--12--13--------------|
----------------------------------|


   E   E   E   E   E   E   E   E
----------------------------------|
--11------13--10------------------|
------12----------11--------------|
----------------------12--10------|
------------------------------12--|
----------------------------------|


         PM PM PM      PM PM PM
     E   S  S  E   E   S  S  E   E   E
|---------------------------------------|
|---------------------------------------|
|*--12------------12--------------------|
|*------------------------------12--13--|
|-------10-10-10------10-10-10----------|
|---------------------------------------|


       PM PM PM      PM      PM
   E   S  S  E   E   E   E   E   E
------------------------------------|
------------------------------------|
--14------------14------10------10--|
------12-12-12------12------12------|
------------------------------------|
------------------------------------|


       PM PM PM      PM PM PM
   E   S  S  E   E   S  S  E   E   E
--------------------------------------|
--------------------------------------|
--14------------14--------------------|
------------------------------12--13--|
------10-10-10------10-10-10----------|
--------------------------------------|


   E   E   E   E   E   E   E   E
----------------------------------|
--11------13--10------------------|
------12----------11--------------|
----------------------12--10------|
------------------------------12--|
----------------------------------|


       PM PM PM      PM PM PM
   E   S  S  E   E   S  S  E   E   E
--------------------------------------|
--------------------------------------|
--12------------12--------------------|
------------------------------12--13--|
------10-10-10------10-10-10----------|
--------------------------------------|


       PM PM PM      PM      PM
   E   S  S  E   E   E   E   E   E
------------------------------------|
------------------------------------|
--14------------14------10------10--|
------12-12-12------12------12------|
------------------------------------|
------------------------------------|


       PM PM PM      PM PM PM
   E   S  S  E   E   S  S  E   E   E
--------------------------------------|
--------------------------------------|
--14------------14--------------------|
------------------------------10--12--|
------10-10-10------10-10-10----------|
--------------------------------------|


   PM PM PM PM PM PM PM PM     PM
   S  S  S  S  S  S  S  S  E   E   E   E
--------------------------------------------|
--------------------------------------------|
--------------------------14------14--15b--*|
--13-13-10-10-16-16-13-13-----13-----------*|
--------------------------------------------|
--------------------------------------------|


       PM PM PM      PM PM PM
   E   S  S  E   E   S  S  E   E   E
--------------------------------------|
--------------------------------------|
--12------------12--------------------|
------------------------------12--13--|
------10-10-10------10-10-10----------|
--------------------------------------|


       PM PM PM      PM      PM
   E   S  S  E   E   E   E   E   E
------------------------------------|
------------------------------------|
--14------------14------10------10--|
------12-12-12------12------12------|
------------------------------------|
------------------------------------|


       PM PM PM      PM PM PM
   E   S  S  E   E   S  S  E   E   E
--------------------------------------|
--------------------------------------|
--12------------12--------------------|
------------------------------12--13--|
------10-10-10------10-10-10----------|
--------------------------------------|


       PM PM PM
   E   S  S  E   E   E   E   E   E
------------------------------------||
------------------------------------||
--12------------15--14--------------||
------------------------15----------||
------10-10-10--------------17--13--||
------------------------------------||





__________________________________________________________
RHYTHM GUITAR!


      E  E  E  E  E  E  E  E
C#||--------------------------|
G#||--------------------------|
E ||--------------------------|
B ||--5--5--5--5--5--5--5--5--|
F#||--5--5--5--5--5--5--5--5--|
B ||--5--5--5--5--5--5--5--5--|


  E  E  E  E  E  E  E  E
--------------------------|
--------------------------|
--------------------------|
--0--0--0--0--0--0--0--0--|
--0--0--0--0--0--0--0--0--|
--0--0--0--0--0--0--0--0--|


  E  E  E  E  E  E  E  E
--------------------------|
--------------------------|
--------------------------|
--1--1--1--1--1--1--1--1--|
--1--1--1--1--1--1--1--1--|
--1--1--1--1--1--1--1--1--|


  E  E  E  E  E  E  E  E
--------------------------|
--------------------------|
--------------------------|
--1--1--1--1--4--4--4--4--|
--1--1--1--1--5--5--5--5--|
--1--1--1--1--4--4--4--4--|


  E  E  E  E  E  E  E  E
--------------------------|
--------------------------|
--------------------------|
--5--5--5--5--5--5--5--5--|
--5--5--5--5--5--5--5--5--|
--5--5--5--5--5--5--5--5--|


  E  E  E  E  E  E  E  E
--------------------------|
--------------------------|
--------------------------|
--8--8--8--8--8--8--8--8--|
--8--8--8--8--8--8--8--8--|
--8--8--8--8--8--8--8--8--|


  E  E  E  E  E  E  E  E
--------------------------|
--------------------------|
--------------------------|
--1--1--1--1--1--1--1--1--|
--1--1--1--1--1--1--1--1--|
--1--1--1--1--1--1--1--1--|


   E   E   E   E   E   E   E   E
----------------------------------|
----------------------------------|
----------------------------------|
--10--10--10--10--10--10--10--10--|
--10--10--10--10--10--10--10--10--|
--10--10--10--10--10--10--10--10--|


     PM PM PM    PM PM PM
  E  S  S  E  E  S  S  E  E  E
--------------------------------|
--------------------------------|
--------------------------------|
--5-----------5-----------------|
--------------------------5--6--|
-----5--5--5-----5--5--5--------|


     PM PM PM
  E  S  S  E  E  E  E  E  E
-----------------------------|
-----------------------------|
--------------3--2-----------|
--5-----------------3--------|
-----------------------5--1--|
-----5--5--5-----------------|


        PM    PM    PM
  Q     E  E  E  E  E  E
---------------------------|
---------------------------|
---------------------------|
---------------------------|
-----------5---------------|
--1b----0-----0--1--1--1b--|


     PM PM    PM    PM    PM
  E  S  S  E  E  E  E  E  E
-----------------------------|
-----------------------------|
-----------------------------|
-----------------------------|
-----------------5-----------|
--L--0--0--1--0-----0--1--0--|


       PM    PM    PM
  Q    E  E  E  E  E  E
-------------------------|
-------------------------|
-------------------------|
----------3--------------|
-------------------------|
--0----0-----0--0--0--0--|


  E  E  E  E  E  E  E  E
--------------------------|
--------------------------|
--------------2--3--2-----|
--------3--5-----------0--|
--------------------------|
--L--0--------------------|


        PM    PM    PM
  Q     E  E  E  E  E  E
---------------------------|
---------------------------|
---------------------------|
---------------------------|
-----------5---------------|
--1b----0-----0--1--1--1b--|


     PM PM    PM    PM    PM
  E  S  S  E  E  E  E  E  E
-----------------------------|
-----------------------------|
-----------------------------|
-----------------------------|
-----------------5-----------|
--L--0--0--1--0-----0--1--0--|


  E  E  E  E  E  E  E  E
--------------------------|
--------------------------|
--------------------------|
-----------7--7--7--------|
--------------------8--8--|
--5--5--5-----------------|


  E  E  E  E  E  E  E  E
--------------------------|
--------------------------|
-----------3--2-----------|
-----------------3--------|
--------------------5--1--|
--3--3--3-----------------|


        PM    PM    PM
  Q     E  E  E  E  E  E
---------------------------|
---------------------------|
---------------------------|
---------------------------|
-----------5---------------|
--1b----0-----0--1--1--1b--|


     PM PM    PM    PM    PM
  E  S  S  E  E  E  E  E  E
-----------------------------|
-----------------------------|
-----------------------------|
-----------------------------|
-----------------5-----------|
--L--0--0--1--0-----0--1--0--|


       PM    PM    PM
  Q    E  E  E  E  E  E
-------------------------|
-------------------------|
-------------------------|
-------------------------|
-------------------------|
--0----0--3--0--0--0--0--|


  E  E  E  E  E  E  E  E
--------------------------|
--------------------------|
--------------2--3--2-----|
--------3--5-----------0--|
--------------------------|
--L--0--------------------|


        PM    PM    PM
  Q     E  E  E  E  E  E
---------------------------|
---------------------------|
---------------------------|
---------------------------|
-----------5---------------|
--1b----0-----0--1--1--1b--|


     PM PM    PM    PM    PM
  E  S  S  E  E  E  E  E  E
-----------------------------|
-----------------------------|
-----------------------------|
-----------------------------|
-----------------5-----------|
--L--0--0--1--0-----0--1--0--|


  E  E  E  E  E  E  E  E
--------------------------|
--------------------------|
--------------------------|
-----------7--7--7--------|
--------------------8--8--|
--5--5--5-----------------|


  E  E  E  E  E  E  E  E
--------------------------|
--------------------------|
-----------3--2-----------|
-----------------3--------|
--------------------5--1--|
--3--3--3-----------------|


  PM PM PM PM PM PM PM PM PM PM PM PM PM PM P
  S  S  S  S  S  S  S  S  S  S  S  S  S  S  S
----------------------------------------------|
----------------------------------------------|
----------------------------------------------|
----------------------------------------------|
----------------------------------------------|
--1--1--1--1--1--1--1--1--1--1--1--1--1--1--1-|


  PM PM PM PM PM PM PM PM PM PM PM PM PM PM P
  S  S  S  S  S  S  S  S  S  S  S  S  S  S  S
----------------------------------------------|
----------------------------------------------|
----------------------------------------------|
----------------------------------------------|
----------------------------------------------|
--3--3--3--3--3--3--3--3--3--3--3--3--3--3--3-|


  PM PM PM PM PM PM PM PM PM PM PM PM PM PM P
  S  S  S  S  S  S  S  S  S  S  S  S  S  S  S
----------------------------------------------|
----------------------------------------------|
----------------------------------------------|
----------------------------------------------|
----------------------------------------------|
--5--5--5--5--5--5--5--5--5--5--5--5--5--5--5-|


  PM PM PM PM PM PM PM PM PM PM PM PM PM PM P
  S  S  S  S  S  S  S  S  S  S  S  S  S  S  S
----------------------------------------------|
----------------------------------------------|
----------------------------------------------|
----------------------------------------------|
----------------------------------------------|
--5--5--5--5--5--5--5--5--7--7--7--7--7--7--7-|


  PM PM PM PM PM PM PM PM PM PM PM PM PM PM P
  S  S  S  S  S  S  S  S  S  S  S  S  S  S  S
----------------------------------------------|
----------------------------------------------|
----------------------------------------------|
----------------------------------------------|
----------------------------------------------|
--8--8--8--8--8--8--8--8--8--8--8--8--8--8--8-|


   PM PM PM PM PM PM PM PM PM PM PM PM PM PM
   S  S  S  S  S  S  S  S  S  S  S  S  S  S
----------------------------------------------|
----------------------------------------------|
----------------------------------------------|
----------------------------------------------|
----------------------------------------------|
--10-10-10-10-10-10-10-10-10-10-10-10-10-10-1-|


   PM PM PM PM PM PM PM PM PM PM PM PM PM PM
   S  S  S  S  S  S  S  S  S  S  S  S  S  S
----------------------------------------------|
----------------------------------------------|
----------------------------------------------|
----------------------------------------------|
----------------------------------------------|
--12-12-12-12-12-12-12-12-12-12-12-12-12-12-1-|


   PM PM PM PM PM PM PM PM PM PM PM PM PM PM
   S  S  S  S  S  S  S  S  S  S  S  S  S  S
----------------------------------------------|
----------------------------------------------|
----------------------------------------------|
----------------------------------------------|
----------------------------------------------|
--12-12-12-12-12-12-12-12-12-12-12-12-12-12-1-|


  TP                  TP
  W                   W
-------------------|-------------------|
-------------------|-------------------|
-------------------|-------------------|
-------------------|-------------------|
--6----------------|--8----------------|
-------------------|-------------------|


   TP                   TP       TP
   W                    H        H
--------------------|---------------------|
--------------------|---------------------|
--------------------|---------------------|
--------------------|------------8--------|
--10----------------|--10-----------------|
--------------------|---------------------|


  TP                  TP
  W                   W
-------------------|-------------------|
-------------------|-------------------|
-------------------|-------------------|
-------------------|-------------------|
--6----------------|--8----------------|
-------------------|-------------------|


  TP                  TP
  W                   W
-------------------|-------------------|
-------------------|-------------------|
-------------------|-------------------|
-------------------|-------------------|
--5----------------|--5----------------|
-------------------|-------------------|


        PM    PM    PM
  Q     E  E  E  E  E  E
---------------------------|
---------------------------|
---------------------------|
---------------------------|
-----------5---------------|
--1b----0-----0--1--1--1b--|


     PM PM    PM    PM    PM
  E  S  S  E  E  E  E  E  E
-----------------------------|
-----------------------------|
-----------------------------|
-----------------------------|
-----------------5-----------|
--L--0--0--1--0-----0--1--0--|


  E  E  E  E  E  E  E  E
--------------------------|
--------------------------|
--------------------------|
-----------7--7--7--------|
--------------------8--8--|
--5--5--5-----------------|


  E  E  E  E  E  E  E  E
--------------------------|
--------------------------|
-----------3--2-----------|
-----------------3--------|
--------------------5--1--|
--3--3--3-----------------|


        PM    PM    PM
  Q     E  E  E  E  E  E
---------------------------|
---------------------------|
---------------------------|
---------------------------|
-----------5---------------|
--1b----0-----0--1--1--1b--|


     PM PM    PM    PM    PM
  E  S  S  E  E  E  E  E  E
-----------------------------|
-----------------------------|
-----------------------------|
-----------------------------|
-----------------5-----------|
--L--0--0--1--0-----0--1--0--|


       PM    PM    PM
  Q    E  E  E  E  E  E
-------------------------|
-------------------------|
-------------------------|
----------3--------------|
-------------------------|
--0----0-----0--0--0--0--|


  E  E  E  E  E  E  E  E
--------------------------|
--------------------------|
--------------2--3--2-----|
--------3--5-----------0--|
--------------------------|
--L--0--------------------|


        PM    PM    PM
  Q     E  E  E  E  E  E
---------------------------|
---------------------------|
---------------------------|
---------------------------|
-----------5---------------|
--1b----0-----0--1--1--1b--|


     PM PM    PM    PM    PM
  E  S  S  E  E  E  E  E  E
-----------------------------|
-----------------------------|
-----------------------------|
-----------------------------|
-----------------5-----------|
--L--0--0--1--0-----0--1--0--|


  E  E  E  E  E  E  E  E
--------------------------|
--------------------------|
--------------------------|
-----------7--7--7--------|
--------------------8--8--|
--5--5--5-----------------|


  E  E  E  E  E  E  E  E
--------------------------|
--------------------------|
-----------3--2-----------|
-----------------3--------|
--------------------5--1--|
--3--3--3-----------------|


        PM    PM    PM
  Q     E  E  E  E  E  E
---------------------------|
---------------------------|
---------------------------|
---------------------------|
-----------5---------------|
--1b----0-----0--1--1--1b--|


     PM PM    PM    PM    PM
  E  S  S  E  E  E  E  E  E
-----------------------------|
-----------------------------|
-----------------------------|
-----------------------------|
-----------------5-----------|
--L--0--0--1--0-----0--1--0--|


       PM    PM    PM
  Q    E  E  E  E  E  E
-------------------------|
-------------------------|
-------------------------|
-------------------------|
-------------------------|
--0----0--3--0--0--0--0--|


  E  E  E  E  E  E  E  E
--------------------------|
--------------------------|
--------------2--3--2-----|
--------3--5-----------0--|
--------------------------|
--L--0--------------------|


        PM    PM    PM
  Q     E  E  E  E  E  E
---------------------------|
---------------------------|
---------------------------|
---------------------------|
-----------5---------------|
--1b----0-----0--1--1--1b--|


     PM PM    PM    PM    PM
  E  S  S  E  E  E  E  E  E
-----------------------------|
-----------------------------|
-----------------------------|
-----------------------------|
-----------------5-----------|
--L--0--0--1--0-----0--1--0--|


  E  E  E  E  E  E  E  E
--------------------------|
--------------------------|
--------------------------|
-----------7--7--7--------|
--------------------8--8--|
--5--5--5-----------------|


  E  E  E  E  E  E  E  E
--------------------------|
--------------------------|
-----------3--2-----------|
-----------------3--------|
--------------------5--1--|
--3--3--3-----------------|


  PM PM PM PM PM PM PM PM PM PM PM PM PM PM P
  S  S  S  S  S  S  S  S  S  S  S  S  S  S  S
----------------------------------------------|
----------------------------------------------|
----------------------------------------------|
----------------------------------------------|
----------------------------------------------|
--1--1--1--1--1--1--1--1--1--1--1--1--1--1--1-|


  PM PM PM PM PM PM PM PM PM PM PM PM PM PM P
  S  S  S  S  S  S  S  S  S  S  S  S  S  S  S
----------------------------------------------|
----------------------------------------------|
----------------------------------------------|
----------------------------------------------|
----------------------------------------------|
--3--3--3--3--3--3--3--3--3--3--3--3--3--3--3-|


  PM PM PM PM PM PM PM PM PM PM PM PM PM PM P
  S  S  S  S  S  S  S  S  S  S  S  S  S  S  S
----------------------------------------------|
----------------------------------------------|
----------------------------------------------|
----------------------------------------------|
----------------------------------------------|
--5--5--5--5--5--5--5--5--5--5--5--5--5--5--5-|


  PM PM PM PM PM PM PM PM PM PM PM PM PM PM P
  S  S  S  S  S  S  S  S  S  S  S  S  S  S  S
----------------------------------------------|
----------------------------------------------|
----------------------------------------------|
----------------------------------------------|
----------------------------------------------|
--5--5--5--5--5--5--5--5--7--7--7--7--7--7--7-|


  PM PM PM PM PM PM PM PM PM PM PM PM PM PM P
  S  S  S  S  S  S  S  S  S  S  S  S  S  S  S
----------------------------------------------|
----------------------------------------------|
----------------------------------------------|
----------------------------------------------|
----------------------------------------------|
--8--8--8--8--8--8--8--8--8--8--8--8--8--8--8-|


   PM PM PM PM PM PM PM PM PM PM PM PM PM PM
   S  S  S  S  S  S  S  S  S  S  S  S  S  S
----------------------------------------------|
----------------------------------------------|
----------------------------------------------|
----------------------------------------------|
----------------------------------------------|
--10-10-10-10-10-10-10-10-10-10-10-10-10-10-1-|


   PM PM PM PM PM PM PM PM PM PM PM PM PM PM
   S  S  S  S  S  S  S  S  S  S  S  S  S  S
----------------------------------------------|
----------------------------------------------|
----------------------------------------------|
----------------------------------------------|
----------------------------------------------|
--12-12-12-12-12-12-12-12-12-12-12-12-12-12-1-|


   PM PM PM PM PM PM PM PM PM PM PM PM PM PM
   S  S  S  S  S  S  S  S  S  S  S  S  S  S
----------------------------------------------|
----------------------------------------------|
----------------------------------------------|
----------------------------------------------|
----------------------------------------------|
--12-12-12-12-12-12-12-12-12-12-12-12-12-12-1-|


  TP                  TP
  W                   W
-------------------|-------------------|
-------------------|-------------------|
-------------------|-------------------|
-------------------|-------------------|
--6----------------|--8----------------|
-------------------|-------------------|


   TP                   TP       TP
   W                    H        H
--------------------|---------------------|
--------------------|---------------------|
--------------------|---------------------|
--------------------|------------8--------|
--10----------------|--10-----------------|
--------------------|---------------------|


  TP                  TP
  W                   W
-------------------|-------------------|
-------------------|-------------------|
-------------------|-------------------|
-------------------|-------------------|
--6----------------|--8----------------|
-------------------|-------------------|


  TP                  TP
  W                   W
-------------------|-------------------|
-------------------|-------------------|
-------------------|-------------------|
-------------------|-------------------|
--5----------------|--5----------------|
-------------------|-------------------|


  W                   W
-------------------|-------------------|
-------------------|-------------------|
-------------------|-------------------|
-------------------|-------------------|
--0----------------|--L----------------|
--0----------------|--L----------------|


  PM PM
  E  E  E  E  E  E  E  E
--------------------------|
--------------------------|
--------------------------|
--------------------------|
--0--0--------------------|
--0--0--------------------|


   PM PM PM PM PM PM PM PM     PM
   S  S  S  S  S  S  S  S  E   E   E   E
-------------------------------------------|
-------------------------------------------|
-------------------------------------------|
--------------------------16------16--17b--|
--15-15-12-12-18-18-15-15-----15-----------|
-------------------------------------------|


  PM PM         PM PM PM PM
  E  E  E  Q    S  S  E  E
----------------------------|
----------------------------|
----------------------------|
----------------------------|
--0--0----------0--0--0--0--|
--0--0----------0--0--0--0--|


     PM PM PM PM PM PM PM PM PM PM
  E  S  S  E  E  S  S  S  S  E  E
-----------------------------------|
-----------------------------------|
-----------------------------------|
-----------------------------------|
-----0--0--0--0--0--0--0--0--0--0--|
-----0--0--0--0--0--0--0--0--0--0--|


  PM PM         PM PM PM PM
  E  E  E  Q    S  S  E  E
----------------------------|
----------------------------|
----------------------------|
----------------------------|
--0--0----------0--0--0--0--|
--0--0----------0--0--0--0--|


     PM PM PM PM PM PM PM PM PM PM
  E  S  S  E  E  S  S  S  S  E  E
-----------------------------------|
-----------------------------------|
-----------------------------------|
-----------------------------------|
-----0--0--0--0--0--0--0--0--0--0--|
-----0--0--0--0--0--0--0--0--0--0--|


  PM PM         PM PM PM PM
  E  E  E  Q    S  S  E  E
----------------------------|
----------------------------|
----------------------------|
----------------------------|
--0--0----------0--0--0--0--|
--0--0----------0--0--0--0--|


  S  S  S  S E  E  E  E  E  E
-------------------------------|
-------------------------------|
-------------------------------|
--5h-8p-7p-0-4--0--1--0--0--1--|
-------------------------------|
-------------------------------|


  PM PM         PM PM PM PM
  E  E  E  Q    S  S  E  E
----------------------------|
----------------------------|
----------------------------|
----------------------------|
--0--0----------0--0--0--0--|
--0--0----------0--0--0--0--|


     PM PM PM PM PM PM PM PM PM PM
  E  S  S  E  E  S  S  S  S  E  E
-----------------------------------|
-----------------------------------|
-----------------------------------|
-----------------------------------|
-----0--0--0--0--0--0--0--0--0--0--|
-----0--0--0--0--0--0--0--0--0--0--|


  PM PM         PM PM PM PM
  E  E  E  Q    S  S  E  E
----------------------------|
----------------------------|
----------------------------|
----------------------------|
--0--0----------0--0--0--0--|
--0--0----------0--0--0--0--|


   PM PM PM PM PM PM PM PM     PM
   S  S  S  S  S  S  S  S  E   E   E   E
-------------------------------------------|
-------------------------------------------|
-------------------------------------------|
--------------------------16------16--17b--|
--15-15-12-12-18-18-15-15-----15-----------|
-------------------------------------------|


  PM PM         PM PM PM PM
  E  E  E  Q    S  S  E  E
----------------------------|
----------------------------|
----------------------------|
----------------------------|
--0--0----------0--0--0--0--|
--0--0----------0--0--0--0--|


     PM PM PM PM PM PM PM PM PM PM
  E  S  S  E  E  S  S  S  S  E  E
-----------------------------------|
-----------------------------------|
-----------------------------------|
-----------------------------------|
-----0--0--0--0--0--0--0--0--0--0--|
-----0--0--0--0--0--0--0--0--0--0--|


  PM PM         PM PM PM PM
  E  E  E  Q    S  S  E  E
----------------------------|
----------------------------|
----------------------------|
----------------------------|
--0--0----------0--0--0--0--|
--0--0----------0--0--0--0--|


  S  S  S  S E  E  E  E  E  E
-------------------------------|
-------------------------------|
-------------------------------|
--5h-8p-7p-0-4--0--1--0--0--1--|
-------------------------------|
-------------------------------|


  PM PM         PM PM PM PM
  E  E  E  Q    S  S  E  E
----------------------------|
----------------------------|
----------------------------|
----------------------------|
--0--0----------0--0--0--0--|
--0--0----------0--0--0--0--|


     PM PM PM PM PM PM PM PM PM PM
  E  S  S  E  E  S  S  S  S  E  E
-----------------------------------|
-----------------------------------|
-----------------------------------|
-----------------------------------|
-----0--0--0--0--0--0--0--0--0--0--|
-----0--0--0--0--0--0--0--0--0--0--|


  PM PM         PM PM PM PM
  E  E  E  Q    S  S  E  E
----------------------------|
----------------------------|
----------------------------|
----------------------------|
--0--0----------0--0--0--0--|
--0--0----------0--0--0--0--|


   PM PM PM PM PM PM PM PM     PM
   S  S  S  S  S  S  S  S  E   E   E   E
-------------------------------------------|
-------------------------------------------|
-------------------------------------------|
--------------------------16------16--17b--|
--15-15-12-12-18-18-15-15-----15-----------|
-------------------------------------------|


  PM PM         PM PM PM PM
  E  E  E  Q    S  S  E  E
----------------------------|
----------------------------|
----------------------------|
----------------------------|
--0--0----------0--0--0--0--|
--0--0----------0--0--0--0--|


     PM PM PM PM PM PM PM PM PM PM
  E  S  S  E  E  S  S  S  S  E  E
-----------------------------------|
-----------------------------------|
-----------------------------------|
-----------------------------------|
-----0--0--0--0--0--0--0--0--0--0--|
-----0--0--0--0--0--0--0--0--0--0--|


  PM PM         PM PM PM PM
  E  E  E  Q    S  S  E  E
----------------------------|
----------------------------|
----------------------------|
----------------------------|
--0--0----------0--0--0--0--|
--0--0----------0--0--0--0--|


  S  S  S  S E  E  E  E  E  E
-------------------------------|
-------------------------------|
-------------------------------|
--5h-8p-7p-0-4--0--1--0--0--1--|
-------------------------------|
-------------------------------|


  W                   W
-------------------|-------------------|
-------------------|-------------------|
--5----------------|--L----------------|
--5----------------|--L----------------|
--3----------------|--L----------------|
-------------------|-------------------|


   Q.      Q.     Q       W
-----------------------|-------------------|
-----------------------|-------------------|
-----------------------|-------------------|
---8------10------7----|--L----------------|
--10------12------9----|--L----------------|
---0-------0------0----|--L----------------|


  W                   W
-------------------|-------------------|
-------------------|-------------------|
--8----------------|--L----------------|
--8----------------|--L----------------|
--6----------------|--L----------------|
-------------------|-------------------|


   W                    W
--------------------|--------------------|
--------------------|--------------------|
--10----------------|--11----------------|
--10----------------|--12----------------|
---8----------------|---9----------------|
--------------------|--------------------|


    E  E  E  E  E  E  E  E
|---------------------------|
|---------------------------|
|*--------------------------|
|*--5--5--5--5--5--5--5--5--|
|---5--5--5--5--5--5--5--5--|
|---5--5--5--5--5--5--5--5--|


  E  E  E  E  E  E  E  E
--------------------------|
--------------------------|
--------------------------|
--0--0--0--0--0--0--0--0--|
--0--0--0--0--0--0--0--0--|
--0--0--0--0--0--0--0--0--|


  E  E  E  E  E  E  E  E
--------------------------|
--------------------------|
--------------------------|
--1--1--1--1--1--1--1--1--|
--1--1--1--1--1--1--1--1--|
--1--1--1--1--1--1--1--1--|


  E  E  E  E  E  E  E  E
--------------------------|
--------------------------|
--------------------------|
--1--1--1--1--4--4--4--4--|
--1--1--1--1--5--5--5--5--|
--1--1--1--1--4--4--4--4--|


  E  E  E  E  E  E  E  E
--------------------------|
--------------------------|
--------------------------|
--5--5--5--5--5--5--5--5--|
--5--5--5--5--5--5--5--5--|
--5--5--5--5--5--5--5--5--|


  E  E  E  E  E  E  E  E
--------------------------|
--------------------------|
--------------------------|
--8--8--8--8--8--8--8--8--|
--8--8--8--8--8--8--8--8--|
--8--8--8--8--8--8--8--8--|


  E  E  E  E  E  E  E  E
--------------------------|
--------------------------|
--------------------------|
--1--1--1--1--1--1--1--1--|
--1--1--1--1--1--1--1--1--|
--1--1--1--1--1--1--1--1--|


   E   E   E   E   E   E   E   E
-----------------------------------||
-----------------------------------||
----------------------------------*||
--10--10--10--10--10--10--10--10--*||
--10--10--10--10--10--10--10--10---||
--10--10--10--10--10--10--10--10---||


     PM PM PM    PM PM PM
  E  S  S  E  E  S  S  E  E  E
--------------------------------|
--------------------------------|
--------------------------------|
--5-----------5-----------------|
--------------------------5--6--|
-----5--5--5-----5--5--5--------|


     PM PM PM    PM    PM
  E  S  S  E  E  E  E  E  E
-----------------------------|
-----------------------------|
-----------------------------|
--7-----------7-----3-----3--|
-----5--5--5-----5-----5-----|
-----------------------------|


     PM PM PM    PM PM PM
  E  S  S  E  E  S  S  E  E  E
--------------------------------|
--------------------------------|
--------------------------------|
--5-----------5-----------------|
--------------------------5--6--|
-----5--5--5-----5--5--5--------|


     PM PM PM
  E  S  S  E  E  E  E  E  E
-----------------------------||
-----------------------------||
--------------3--2-----------||
--5-----------------3--------||
-----------------------5--1--||
-----5--5--5-----------------||



Duration Legend
---------------
W - whole
H - half
Q - quarter
E - 8th
S - 16th
T - 32nd
X - 64th
. - note dotted
|-n-|  - n-tuplets


Tablature Legend
----------------
L - tied note
x - dead note
g - grace note
(n) - ghost note
> - accentuded note
NH - natural harmonic
AH - artificial harmonic
TH - tapped harmonic
SH - semi harmonic
PH - pitch harmonic
h - hammer on
p - pull off
b - bend
br - bendRelease
pb - preBend
pbr - preBendRelease
brb - bendReleaseBend
\n/ - tremolo bar dip
\n - tremolo bar dive
-/n - tremolo bar Release up
/n\ - tremolo bar inverted dip
/n - tremolo bar return
-\n - tremolo bar Release down
S - shift slide
s - legato slide
/ -  slide into from below or out of upwards
\ -  slide into from above or out of downwards
~ - vibrato
W - wide vibrato
tr - trill
TP - tremolo picking
T - tapping
S - slap
P - pop
< - fade in
^ - brush up
v - brush down

Tab by Rene Möllenbeck

            
            
Suggest correction
Creating personal tab
Creating personal tab
You can edit any tab online and save it as your Personal.

You can edit, replace or remove any tab part or add personal notes – all changes will be seen only by you.

Personal tabs can be accessed anytime from any device, even offline.
Learn more »
Give kudos to tab author, rate the tab!
1 2 3 4 5
comments
print report bad tab
guest
You may want to rate the tab now too:
select rating
Wanna post a correction for this tab? Suggest correction