Oops, an error
Loading. Please wait.

Card House Dreamer bass

version 1
version 1

Whole song

Interactive

1,135 views 1 this week
1 commentread comment
1 2 3 4 5
2 more votes to show rating
add to favorites
×
Save as Personal and add changes to this tab that will be seen only by you. Learn more ›
×
You can save this tab as Personal to edit and correct it or add notes. All changes will be seen only by you. Learn more »
launch autoscroll
font size
0
reset
guitar tuner
edit
Autoscroll
slow
fast
+/-
esc
set tempo
stop
Author
-------------------------------------------------------------------------------
			   Card House Dreamer - This Providence
-------------------------------------------------------------------------------
Tabbed By: Valerie L
e-mail: iloled@yahoo.com
Tuning: standard

i love this song. i love the distortion. i saw them with paramore :)

Intro
G|--------|
D|--------|
A|--------|
E|-12\----|

Verse
G|-------------------------|
D|---55--------------------|
A|------7-5-3-33-55-3-5----|
E|55--------------------3--|x4

G|--------------------------|
D|--------------------------|
A|----------5-33-3-7-5-3-5--|
E|3-55-3-55-----------------|

G|-------------------------|
D|---55--------------------|
A|------7-5-3-33-55-3-5----|
E|55--------------------3--|x4

Pre-Chorus
G|-----------|
D|-----------|
A|-----------|
E|12\--------|

Chorus
G|----------------------------------------|
D|--------------------33333333-55555555---|
A|--00000000-33333333---------------------|
E|----------------------------------------| x2

Verse x4

Pre-Chorus
G|--------------|    |--------|
D|---55555------|    |--------|
A|---------7----|    |--------|
E|55------------| x3 |---12\--|

Chorus x4

Bridge
G|---------------------------------------------------|
D|-----------------------------55--------------------|
A|55-5-5-3------------------------7-5-3-33-55-3-5-7--|
E|---------5-3-11-11-0-1-3--55-----------------------| x2

G|--------------------------|
D|--------------------------|
A|-----------5-33------5-33-|
E|3-55--3-55------3-55------|''

Chorus x4

Outro
G|--------------|    
D|---55555------|    
A|---------7----|    
E|55------------| x3 

            
            
Suggest correction
Creating personal tab
Creating personal tab
You can edit any tab online and save it as your Personal.

You can edit, replace or remove any tab part or add personal notes – all changes will be seen only by you.

Personal tabs can be accessed anytime from any device, even offline.
Learn more »
Give kudos to tab author, rate the tab!
1 2 3 4 5
comments
print report bad tab
1 comment total.
0 reply
dakota_s_ 277 Mar 10, 2013 10:36 AM

Close but I have a few corrections.

Verse
G|-------------------------|
D|---55--------------------|
A|------5-7-5-33-55-33-----|
E|55-------------------3---| x4

G|--------------------------|
D|-------------------2------|
A|----------5-33-3-5---5----|
E|3-55-3-55--------------3--|

G|-------------------------|
D|---55--------------------|
A|------5-7-5-33-55-33-----|
E|55-------------------3---| x4

Also for the Chorus bring the G (D string 5th fret) down an octave (E string 3rd fret)

The first half of the bridge is spot on but the second half is off. I can't really figure it out either though.

guest
You may want to rate the tab now too:
select rating
Wanna post a correction for this tab? Suggest correction