Oops, an error
Loading. Please wait.

Letdown bass

852 views 1 this week
1 commentread comment
1 2 3 4 5
2 more votes to show rating
add to favorites
×
Save as Personal and add changes to this tab that will be seen only by you. Learn more ›
×
You can save this tab as Personal to edit and correct it or add notes. All changes will be seen only by you. Learn more »
launch autoscroll
font size
0
reset
guitar tuner
edit
Autoscroll
slow
fast
+/-
esc
set tempo
stop
Author
Difficulty
-----------------------------------------------------------------------------
			     Letdown - This Providence
-----------------------------------------------------------------------------

Learned this a long time ago but,
too lazy to put it up though.

big thanks to Alex Prado for helping me out this one

Tabbed By : Bernie Baldonado
e-mail: baldonadobernie@gmail.com

Tuning:EADGBe

intro: 0:03
G|--------------------------------------------------------------------------|
D|--------------------------------------------------------------------------|
A|000000000000----333333333333---------------------33333333-----------------|
E|------------1111------------3333-1111111111111111--------33333333---------|

verse 1: 0:15
G|--------------------------------------------------------------------------|
D|--------------------------------------------------------------------------|
A|000000000000----333333333333---------------------33333333---------(x2)----|
E|------------1111------------3333-1111111111111111--------33333333---------|

pre-chorus: 0:39
G|--------------------------------------------------------------------------|
D|--------------------------------------------------------------------------|
A|--------------------------------------------------------------------------|
E|1111111111111111----------------------------------------------------------|

chorus: 0:42
G|--------------------------------------------------------------------------|
D|--------------------------------------------------------------------------|
A|3333333333333333-0000000000000000----------------------------------(x2)---|
E|---------------------------------3333333333333333-11111111-33333333-------|

pre-verse: 1:07
G|--------------------------------------------------------------------------|
D|--------------------------------------------------------------------------|
A|0~~~~~~~~~~~~~~~-there's a little riff at the end, i forgot how to play it|
E|--------------------------------------------------------------------------|

verse 2: 1:12
G|--------------------------------------------------------------------------|
D|--------------------------------------------------------------------------|
A|000000000000----333333333333---------------------33333333---------(x2)----|
E|------------1111------------3333-1111111111111111--------33333333---------|

pre-chorus: 1:36
G|--------------------------------------------------------------------------|
D|--------------------------------------------------------------------------|
A|--------------------------------------------------------------------------|
E|1111111111111111----------------------------------------------------------|

chorus: 1:39
G|--------------------------------------------------------------------------|
D|--------------------------------------------------------------------------|
A|3333333333333333-0000000000000000----------------------------------(x2)---|
E|---------------------------------3333333333333333-11111111-33333333-------|

bridge pt.1: 2:04
G|--------------------------------------------------------------------------|
D|--------------------------------------------------------------------------|
A|-00-33/7~(7532)---33-----------00-33/7~(7532)---33------------------------|
E|----------------11--3~(3310)------------------11--3~(3310)----------------|

(optional) bridge pt.2: 2:15 (she sealed my fate)
G|--------------------------------------------------------------------------|
D|--------------------------------------------------------------------------|
A|3~~~~~~~~~~~~~~~----------------------------------------------------------|
E|-----------------1~~~~~~~-3~~~~~~~----------------------------------------|

G|--------------------------------------------------------------------------|
D|---(lightly)--------------------------------------------------------------|
A|3333333333333333----------------------------------------------------------|
E|-----------------11111111-33333333----------------------------------------|

chorus: 2:42
G|--------------------------------------------------------------------------|
D|--------------------------------------------------------------------------|
A|3333333333333333-0000000000000000----------------------------------(x2)---|
E|---------------------------------3333333333333333-11111111-33333333-------|

ending chorus: 3:06
G|----------------------------------------------------------------------------|
D|----------------------------------------------------------------------------|
A|3333333333333333-0000000000000000----------------------------------(x2)-----|
E|---------------------------------3333333333333333-11111111-33333333---------|

end: 3:31
G|--------------------------------------------------------------------------|
D|--------------------------------------------------------------------------|
A|-3~~~~~~~~~~~~~~~~~~~~~~~~~~~~~~~~~~~-------------------------------------|
E|--------------------------------------------------------------------------|


| /  slide up
| \  slide down
| h  hammer-on
| p  pull-off
| ~  vibrato
| +  harmonic
| x  Mute note
=============================================================================
Suggest correction
Creating personal tab
Creating personal tab
You can edit any tab online and save it as your Personal.

You can edit, replace or remove any tab part or add personal notes – all changes will be seen only by you.

Personal tabs can be accessed anytime from any device, even offline.
Learn more »
Give kudos to tab author, rate the tab!
1 2 3 4 5
comments
print report bad tab
1 comment total.
0 reply
nikkobaboy 40 Jul 29, 2012 04:17 AM

wow...i like how even prader helped you....people say it's wrong.

guest
You may want to rate the tab now too:
select rating
Wanna post a correction for this tab? Suggest correction