Oops, an error
Loading. Please wait.

26 Is Dancier Than 4 Acoustic tab

version 3
version 3

Whole song

Interactive

1,510 views 18 this week
1 commentread comment
1 2 3 4 5
x 3
add to favorites
×
Save as Personal and add changes to this tab that will be seen only by you. Learn more ›
×
You can save this tab as Personal to edit and correct it or add notes. All changes will be seen only by you. Learn more »
launch autoscroll
font size
0
reset
how to read this tab
guitar tuner
edit
Autoscroll
slow
fast
+/-
esc
set tempo
stop
---------------------------------------------------------------------------------------
                             26 IS DANCIER THAN 4 (Acoustic) - TTNG
---------------------------------------------------------------------------------------
Tabbed by: dylanpraumlel
E-mail: praumofficial@gmail.com

Tuning: Open G, Drop C (CGDGBd)

This is Tim-tam’s part
for Hciwiec

I’m 99% sure that everything here is correct, learned from their Taylor performance. 

--> Further down, I have a version where the frets are not relative to the capo as I know some people
like it and others don’t. I recommend using this top one because it's organized better.

Part 1 
Capo 8, 3/4; Frets relative to capo
d |-------------|-------------|----------0--------|
B |---------0---|-5-------0---|-------0-----------|
G |-0---------0-|-----7-----0-|------4-----p0-----|
D |-----7-------|-------5-----|-----2---------p0--|
G |-------4-----|-------------|----0--------------|
C |-4-----------|-7-----------|-0-----------------|
    1   2 + 3 +   1   2 + 3 +   1  +tl2  +  3  +


d |----------0--------|-------------|-0-----------|
B |-------0-----------|---------0---|-----0-------|   
G |------4-----p0-----|-0---------0-|---------0---|    x3
D |-----2---------p0--|-----4-------|---------4---|
G |----0--------------|-------2-----|-----2-------|
C |-0-----------------|-2-----------|-2-----------|
    1  +tl2  +  3  +    1   2 + 3 +   1   2   3


d |-------------|-------------|----------0--------|
B |---------0---|-5-------0---|-------0-----------|
G |-0---------0-|-----7-----0-|------4-----p0-----|
D |-----7-------|-------5-----|-----2---------p0--|
G |-------4-----|-------------|----0--------------|
C |-4-----------|-7-----------|-0-----------------|
    1   2 + 3 +   1   2 + 3 +   1  +tl2  +  3  +

                                     Let ring
d |----------0--------|-------------|-0-----------|
B |-------0-----------|---------0---|-------------|
G |------4-----p0-----|-0---------0-|-------------|   x1
D |-----2---------p0--|-----4-------|-------------|
G |----0--------------|-------2-----|-------------|
C |-0-----------------|-2-----------|-2-----------|
    1  +tl2  +  3  +    1   2 + 3 +   1   2   3

The first time you do Part 1, take the 4 repeats of the phrase and do it all again (lol)

Part 2
Capo 8, switches time sigs; Frets relative to capo
d |-------------|----------0-----0--------|-----------------|
B |-------0-----|-----------3-------0-----|-----------------|
G |-0-------0---|-0----------0---------0--|-----0-------0---|
D |---9-------9-|----4--------5-----------|---4-----7/9---0-|
G |-----7-------|-------------------------|---------7/9-----|
C |-7---------7-|-2-----0--------------0--|-4-----0---------|
    1 + 2 + 3 +   1  +  2  +tl3  +  4  +    1 + 2 + 3 + 4 +

d |--12-9-----0-||-------------|----------0-----0--------|
B |------10\8---||-------0-----|-----------3-------0-----|
G |-------------||-0-------0---|-0----------0---------0--|
D |-------------||---9-------9-|----4--------5-----------|
B |-0-----------||-----7-------|-------------------------|
C |-------------||-7---------7-|-2-----0--------------0--|
    1 + 2 + 3 +    1 + 2 + 3 +   1  +  2  +tl3  +  4  +   

d |----------------0-----|--12-9-----0-----|   
B |------------8-----0---|------10\8---8---| 
G |-----0-------0------0-|---------------0-|     All x3
D |---4-----7/9--9-------|-----------------|  
B |---------7/9----------|-0---------------|  
C |-4-----0--------------|-----------------|  
    1 + 2 + 3 e+a4 + 5 +   1 + 2 + 3 + 4 +   
                                                                                           

Part 3
Capo 8, 3/4; Frets relative to capo
d |--------------------------|-------0-----------|
B |--------------------5-p0--|------0------------|
G |----------0h2h4-/7--------|-----7---/9-p0-----| x18
D |----0h2h4-------/7--------|----7----/9----p0--|
G |-0------------------------|-0-----------------|
C |--------------------------|-------------------|
    1  + t l 2 t l  +  3  +    1  +tl2  +  3  +


Pause; Play part 1 only once instead of twice. Play part 2 the same. Play part 3 only 16 times instead of 18.


====================================================================
====================================================================
=========================VERSION WITH FRETS=========================
===================== INDEPENDENT OF CAPO HERE =====================
====================================================================
====================================================================

26 is Dancier Than 4 (Acoustic) – Tim-tam’s part

I’m 99% sure that everything here is correct, learned from their Taylor performance. 

Frets ignore capo here, text left mostly the same. An open string will still be notated as 0. 

***Rhythm gets a bit cluttery on this since the frets are double digits, but I lined up the beat with the 
second digit of the fret. Triplets have some spaces but they’re still just straight sixteenth note triplets.

Part 1 
Capo 8, 3/4; Frets relative to capo
d |--------------|--------------|----------0--------|
B |----------0---|-13-------0---|-------0-----------|
G |--0---------0-|-----15-----0-|-----12-----p0-----|
D |-----15-------|-------13-----|----10---------p0--|
G |-------12-----|--------------|---0---------------|
C |-12-----------|-15-----------|-0-----------------|
     1   2 + 3 +    1   2 + 3 +   1 + tl2  +  3  +


d |----------0--------|--------------|--0-----------|
B |-------0-----------|----------0---|------0-------|   
G |-----12-----p0-----|--0---------0-|----------0---|    x3
D |----10---------p0--|-----12-------|---------12---|
G |---0---------------|-------10-----|-----10-------|
C |-0-----------------|-10-----------|-10-----------|
    1 + tl2  +  3  +     1   2 + 3 +    1   2   3


d |--------------|--------------|----------0--------|
B |----------0---|-13-------0---|-------0-----------|
G |--0---------0-|-----15-----0-|-----12-----p0-----|
D |-----15-------|-------13-----|----10---------p0--|
G |-------12-----|--------------|---0---------------|
C |-12-----------|-15-----------|-0-----------------|
     1   2 + 3 +    1   2 + 3 +   1 + tl2  +  3  +


                                     Let ring
d |----------0--------|--------------|--0-----------|
B |-------0-----------|----------0---|--------------|   
G |-----12-----p0-----|--0---------0-|--------------|   x1
D |----10---------p0--|-----12-------|--------------|
G |---0---------------|-------10-----|--------------|
C |-0-----------------|-10-----------|-10-----------|
    1 + tl2  +  3  +     1   2 + 3 +    1   2   3


The first time you do Part 1, take the 4 repeats of the phrase and do it all again (lol)


Part 2
Capo 8, switches time sigs; Frets relative to capo
d |--------------|----------0-------0------|--------------------|
B |--------0-----|-----------11-------0----|--------------------|
G |--0-------0---|--0-----------0-------0--|------0---------0---|
D |---17------17-|----12---------13--------|---12-----15/17---0-|
G |-----15-------|-------------------------|----------15/17-----|
C |-15--------15-|-10-----0-------------0--|-12-----0-----------|
     1 + 2 + 3 +    1  +  2 + t l 3 + 4 +     1 + 2 +  3  + 4 +


d |---20-17--------0-||--------------|----------0-------0------|-----------------------0-------|
B |---------18\16----||--------0-----|-----------11-------0----|---------------16---------0----|
G |------------------||--0-------0---|--0-----------0-------0--|------0-----------0----------0-|
D |------------------||---17------17-|----12---------13--------|---12-----15/17----17----------|
G |-0----------------||-----15-------|-------------------------|----------15/17----------------|
C |------------------||-15--------15-|-10-----0-------------0--|-12-----0----------------------|
    1  +  2  +  3  +     1 + 2 + 3 +    1  +  2 + t l 3 + 4 +     1 + 2 +  3  e + a 4  +  5  +

d |---20-17--------0-------|   
B |---------18\16----16----| 
G |----------------------0-|    All x3
D |------------------------|  
B |-0----------------------|  
C |------------------------|
    1  +  2  +  3  +  4  +   
                                                           

Part 3
Capo 8, 3/4; Frets relative to capo
d |-------------------------------|----------0------------|
B |------------------------13-p0--|--------0--------------|
G |------------0h10h12-/15--------|-----15-----/17-p0-----| x18
D |----0h10h12---------/15--------|---15-------/17----p0--|
G |-0-----------------------------|-0---------------------|
C |-------------------------------|-----------------------|
    1  +  t  l 2  t  l   +  3  +    1  + t l 2   +  3  +

Pause; Play part 1 only once instead of twice. Play part 2 the same. Play part 3 only 16 times instead of 18. 

************************************

| /   slide up
| \   slide down
| h   hammer-on
| p   pull-off

************************************



            
            
Suggest correction
Creating personal tab
Creating personal tab
You can edit any tab online and save it as your Personal.

You can edit, replace or remove any tab part or add personal notes – all changes will be seen only by you.

Personal tabs can be accessed anytime from any device, even offline.
Learn more »
Give kudos to tab author, rate the tab!
1 2 3 4 5
comments
print report bad tab
1 comment total.
0 reply
soundsseattle 10 Jan 11, 2016 08:30 PM

thank you!

guest
You may want to rate the tab now too:
select rating
Wanna post a correction for this tab? Suggest correction