Oops, an error
Loading. Please wait.

Crocodile Tab

version 1
version 1

Whole song

Interactive

9,143 views 27 this week
2 commentsread comments
1 2 3 4 5
x 9
add to favorites
launch autoscroll
font size
0
reset
how to read this tab
guitar tuner
Autoscroll
slow
fast
+/-
esc
set tempo
stop
Help us to improve Ultimate-Guitar.com Take our survey!
×
Author
Difficulty
Capo
intermediate
3rd fret
Una genial balada math-rock  de This Town Needs Guns, muy influenciada seguramente por 
American Football (Es hasta la misma afinaci?n de "Never Meant). Cualquier duda estoy a 
sus servicios en Facebook: www.facebook.com/osnegrete

A great math-rock ballad from This Town Needs Guns, very influenced surely by American 
Football (it's even the same tunning of "Never Meant")
Any doubts i'm at your service at Facebook www.facebook.com/osnegrete

Afinaci?n/tuning: FACGCE CAPO 3
Tablatura relativa al capo /Tab relativo to capo

Intro/Verso
E------------------------------------------------|
C----7-------------------------------------------|
G-----9p7/5p0-------0--------0---------0---------|
C--------------7/4----0----0---------0-----------|
A--0---------0---------3/2---------2-------------|
F------------------------------0n2---------------|

God knows why we're in love...

E------------------------------------------------|
C----7-------------------------------------------|
G-----9p7/5p0-------0--------0---------0---------|
C--------------7/4----0----0---------0-----------|
A----------------------3/2---------2-------------|
F--0---------0-----------------0n2---------------|

 I promise I will not see...
E----------------------------------------------|
C-7-----7----7-----7---9-----------------------|
G---9-----9----9----9----9---9-----------------|
C----------------------------------------------|
A-0---0------0---0-----0---0-------------------|
F----------------------------------------------|

...Out this night without
E------0---------0---------0-------------------|
C-0------0--0------0--0------------------------|
G---7---------7---------7----------------------|
C----------------------------------------------|
A----------------------------------------------|
F-7--7------7---7-----7---7--------------------|

 End
E----------------------------------------------|
C---0------------------------------------------|
G----------------------------------------------|
C----------------------------------------------|
A----------------------------------------------|
F---7------------------------------------------|


Suggest correction
comments
print report bad tab
2 comments total.
0 reply
omertoscar 549 Jan 30, 2013 06:20 PM

Sorry! i forgot to write some notes while tabbing! These are the right ways to play the first two riffs:
Lo siento! olvidé escribir algunas notas al transcribirlo, esta es la forma correcta de tocar los primeros dos riffs:

E------------------------------------------------|
C----7-------------------------------------------|
G-----9/7-5-0-------0--------0---------0---------|
C--------------7/4----0----0---------0-----------|
A--0---------0---------3/2---------2-------------|
F------------------------------0n2---------------|

God knows why we're in love...

E------------------------------------------------|
C----7-------------------------------------------|
G-----9/7-5-0-------0--------0---------0---------|
C--------------7/4----0----0---------0-----------|
A------------0---------3/2---------2-------------|
F--0---------------------------0n2---------------|

0 reply
omertoscar 549 Jan 30, 2013 06:23 PM

FUCK! las notas al aire en A y G no son al mismo tiempo! primero es A y luego G, no sé porqué salió así! en fin! espero que lo comprendan y puedan ejecutar aún con el error al escribirlo!

Fuck! A & G open notes are not played at the same time, A is first then G, i don't know why the tab appeared that way! anyways! i hope you comprehend it and can play it no matter the tabbing mistake!

guest
You may want to rate the tab now too:
select rating
Wanna post a correction for this tab? Suggest correction