Oops, an error
Loading. Please wait.

History chords

version 3
version 3

Whole song

  • This is the exact chords TWL uses, it is all Kevin... Show more

Interactive

163 views 9 this week
no commentswrite comment
1 2 3 4 5
3 more votes to show rating
add to favorites
×
Save as Personal and add changes to this tab that will be seen only by you. Learn more ›
×
You can save this tab as Personal to edit and correct it or add notes. All changes will be seen only by you. Learn more »
launch autoscroll
font size
0
reset
transpose
0
reset
simplify chords
display chords
guitar tuner
edit
Autoscroll
slow
fast
+/-
esc
set tempo
stop
About this tab version
This is the exact chords TWL uses, it is all Kevin's part except for the tab part of the solo it was added just for fun incase you wanted to learn it. Was this info helpful? Yes No
Strumming
There is no strumming pattern for this song yet. and get +5 IQ
ALL CHORDS RELATIVE TO THE CAPO            CAPO. 1st

the chords are not named to their fingering perfectly but they are all pretty damn close

[CHORDS]:
        E-A-D-G-B-E 

     C: 0-3-2-0-3-3 

 Em7#5: 0-3-0-0-3-3

   Em7: 0-2-2-0-3-3

     D: 0-0-0-2-3-2

     G: 3-2-0-0-3-3

   F#m: 2-0-0-0-3-3

   Em9: 0-5-4-0-5-0

Emadd9: 0-7-5-0-7-0




[INTRO]
e|------------3---0---------------|------------3---0---------------|------------3---0---------------|
B|----3---------------3-------3---|----3---------------3-------3---|----3---------------3-------3---|
G|--------0---------------0-------|--------0---------------0-------|--------0---------------0-------|
D|--------------------------------|--------------------------------|2-------------------------------|
A|3-------------------------------|3-------------------------------|--------------------------------|
E|--------------------------------|--------------------------------|--------------------------------|-

|------------2---0---------------|
|----3---------------3-------3---|
|--------0---------------0-------|
|0-------------------------------|
|--------------------------------|
|--------------------------------|


[VERSE 1]
C                                     Em7#5
You should not get what you have not earned
                                     C
What I do from here is none of your concern
                               Em7
It didn’t work, yeah I know it hurts
                                D
But it’s gotta give before it gets much worse


[PRE-CHORUS]
C    Em7                 D
Oooh, gotta give up on you, oooh
C   Em7             G     D
Oooh, gotta give up on you, on you


[CHORUS]
Em7                C
We’ve got a lot of history
           G                      F#m            
But there’s too much space between you and me
Em                   C
You have plans, yeah I have dreams
     G            F#m
But do I have the guts in me
Em    C    G  F#m                      Em
To leave, leave, pack my shit and leave
   C    G  F#m
Leave, leave


 [INTRO]
e|------------3---0---------------|------------3---0---------------|------------3---0---------------|
B|----3---------------3-------3---|----3---------------3-------3---|----3---------------3-------3---|
G|--------0---------------0-------|--------0---------------0-------|--------0---------------0-------|
D|--------------------------------|--------------------------------|2-------------------------------|
A|3-------------------------------|3-------------------------------|--------------------------------|
E|--------------------------------|--------------------------------|--------------------------------|-

|------------2---0---------------|
|----3---------------3-------3---|
|--------0---------------0-------|
|0-------------------------------|
|--------------------------------|
|--------------------------------|


[VERSE 2]
C                          Em7#5
The irony gets the best of me
                                            C
I’m sad that we split, but you’re still happy
                                   Em7
What I gave to you was more than memories
                                   D
What you took from me wasn’t worth anything


[PRE-CHORUS]
C    Em7                  D
Oooh, gotta give up on you, oooh
C   Em7             G     D
Oooh, gotta give up on you, on you


[CHORUS]
Em7                C
We’ve got a lot of history
           G                      F#m            
But there’s too much space between you and me
Em                   C
You have plans, yeah I have dreams
     G            F#m
But do I have the guts in me
Em    C    G  F#m                      Em
To leave, leave, pack my shit and leave
   C    G  F#m 
Leave, leave       OOHH


[SOLO]
Em7#5  Em9   Emadd9   (the chords are played over the solo)

e|--------7-------5/--7-------7---|--------7-------5/--7-----------|--------7-------5/--7-------7---|
B|----8-------8-----------8-------|----8-------8-----------8/--5---|----8-------8-----------8-------|
G|--------------------------------|--------------------------------|--------------------------------|
D|--------------------------------|--------------------------------|--------------------------------|
A|--------------------------------|--------------------------------|--------------------------------|
E|--------------------------------|--------------------------------|--------------------------------|

|--------7-------10--10--10--7---|
|----8-------8/------------------|
|--------------------------------|
|--------------------------------|
|--------------------------------|
|--------------------------------|


[HOOK]
C                                 Em9
You never cared enough, you never earned my trust
        Emadd9
You just took what you could get
C                             Em9
You never lift me up, I never felt your love
       Emadd9
I know exactly what this is


C  G  D


[BRIDGE]
C                                 G                       
I’m tired of the weight when you lean on me
     D
If I fell you would never stay to carry me


[CHORUS]
Em7                C
We’ve got a lot of history
           G                      F#m            
But there’s too much space between you and me
Em                   C
You have plans, yeah I have dreams
     G            F#m
But do I have the guts in me
Em    C    G  F#m                      Em
To leave, leave, pack my shit and leave
   C    G  F#m
Leave, leave

[OUTRO]
 (SAME AS INTRO)
e|------------3---0---------------|------------3---0---------------|------------3---0---------------|
B|----3---------------3-------3---|----3---------------3-------3---|----3---------------3-------3---|
G|--------0---------------0-------|--------0---------------0-------|--------0---------------0-------|
D|--------------------------------|--------------------------------|2-------------------------------|
A|3-------------------------------|3-------------------------------|--------------------------------|
E|--------------------------------|--------------------------------|--------------------------------|-

|------------2---0---------------|
|----3---------------3-------3---|
|--------0---------------0-------|
|0-------------------------------|
|--------------------------------|
|--------------------------------|
Suggest correction
Creating personal tab
Creating personal tab
You can edit any tab online and save it as your Personal.

You can edit, replace or remove any tab part or add personal notes – all changes will be seen only by you.

Personal tabs can be accessed anytime from any device, even offline.
Learn more »
Give kudos to tab author, rate the tab!
1 2 3 4 5
comments
print report bad tab
guest
You may want to rate the tab now too:
select rating
Wanna post a correction for this tab? Suggest correction