Oops, an error
Loading. Please wait.

Puppy Love chords

version 4
version 4

Whole song

594 views 1 this week
no commentswrite comment
1 2 3 4 5
3 more votes to show rating
add to favorites
×
Save as Personal and add changes to this tab that will be seen only by you. Learn more ›
×
You can save this tab as Personal to edit and correct it or add notes. All changes will be seen only by you. Learn more »
launch autoscroll
font size
0
reset
transpose
0
reset
simplify chords
display chords
guitar tuner
edit
Autoscroll
slow
fast
+/-
esc
set tempo
stop
Strumming
There is no strumming pattern for this song yet. and get +5 IQ
-------------------------------------------------------------------------------
                            PUPPY LOVE - This Wild Life
-------------------------------------------------------------------------------
Tabbed by: JesusAvalos
E-mail: jgavalosd@gmail.com

Tuning: Eb Standard

     C     G    Am     F    Fm    E7
eb |-x-| |-3-| |-0-| |-1-| |-1-| |-x-|
Bb |-1-| |-3-| |-1-| |-1-| |-1-| |-1-|
F# |-0-| |-0-| |-2-| |-2-| |-1-| |-0-|
C# |-2-| |-0-| |-2-| |-3-| |-3-| |-2-|
G# |-3-| |-2-| |-0-| |-3-| |-3-| |-2-|
Eb |-x-| |-3-| |-x-| |-1-| |-1-| |-x-|

INTRO:

eb|------3-------------3-3/5--0--------0---------------3/p0-------------------|
Bb|----1---1---1-----1---------------1---1---1-----1--------------------------|
F#|--0-------0-----0---------------0-------0-----0---0------------------------|
C#|------------------------------3-------------2-------0----------------------|  x2
G#|3-------------2------------------------------------------------------------|
EB|---------------------------------------------------------------------------| 

VERSE 1:
C                           E7
You know you never seem to mind
      Am                     G                   
When I show up late in this broke down car of mine
F             C            G
To pick you up and take you out
C                          E7
We make the best of our short time
      Am                     G
And though it's not enough you assure me that it's fine
F             C                  G
With windows down let's go for a ride

PLAY WITH VERSE: x2
eb|----------------------------------------3-----0-------------3---------------------------3--------------------
Bb|------1-------------3-1-----------1-------0-----0---0---------------------1-----------0---0---0-3/5/3--------
F#|----0---0---0-----0-----0-------2---2-------0-----0---------------------0---0---0---0-------0---------5-4/54-
C#|--2-------2-----0---------0---2-------2-------------------3---3---3---2-------2-----------------------------5
G#|3-------------2-------------0---------------------------3-------3---3----------------------------------------
EB|----------------------------------------3-------------1---------------------------3--------------------------

CHORUS:
C                               G
Cause when I mess up, you never give up your love
           Am                     F
Yeah I'm a fuck up, but you swear I'm enough
C        G            F              Fm
And all I know that's true, is just how much I miss you
C            G   
Hold up, you're running away
          Am          F
I swear I told ya, it gets better today
C        G            F              Fm
And all I know that's true, is just how much I love you

PLAY WITH CHORUS: x2
eb|------3-------------5-3-----------0---------------------------3-------------5-3-------0------1-----|
Bb|------------------------------------------------3-1------------------------------------------1-----|
F#|----0---0---0-----0-----0-------0---0---0-------------------0---0---0-----0------------------1-----|
C#|--2-------2-----2---------2---2-------2-------3-----3-----2-------2-----2-----------3---3----3-----|
G#|3---------------------------0---------------3---------3-3-------------------------3-------3--3-----|
EB|--------------3---------------------------1---------------------------3---------1------------1-----| 

eb|------3-------------3-3/5--0--------0---------------3/p0-------------------|
Bb|----1---1---1-----1---------------1---1---1-----1--------------------------|
F#|--0-------0-----0---------------0-------0-----0---0------------------------|
C#|------------------------------3-------------2-------0----------------------|  x2
G#|3-------------2------------------------------------------------------------|
EB|---------------------------------------------------------------------------| 

VERSE 2:
C                          E7
You know you never seem to mind
       Am                      G
When I get off late and wanna stay in for the night
F                C                G
We'll watch some Sunny it'll be alright
C                          E7
And when my world is upside down
              Am                G
You're always planted firmly, so firmly on the ground
F                C             G
We'll lay together without a sound

PLAY WITH VERSE: x2
eb|----------------------------------------3-----0-------------3---------------------------3--------------------
Bb|------1-------------3-1-----------1-------0-----0---0---------------------1-----------0---0---0-3/5/3--------
F#|----0---0---0-----0-----0-------2---2-------0-----0---------------------0---0---0---0-------0---------5-4/54-
C#|--2-------2-----0---------0---2-------2-------------------3---3---3---2-------2-----------------------------5
G#|3-------------2-------------0---------------------------3-------3---3----------------------------------------
EB|----------------------------------------3-------------1---------------------------3--------------------------

CHORUS:
C                               G
Cause when I mess up, you never give up your love
           Am                     F
Yeah I'm a fuck up, but you swear I'm enough
C        G            F              Fm
And all I know that's true, is just how much I miss you
C            G   
Hold up, you're running away
          Am          F
I swear I told ya, it gets better today
C        G            F              Fm
And all I know that's true, is just how much I love you

PLAY WITH CHORUS: x2
eb|------3-------------5-3-----------0---------------------------3-------------5-3-------0------1-----|
Bb|------------------------------------------------3-1------------------------------------------1-----|
F#|----0---0---0-----0-----0-------0---0---0-------------------0---0---0-----0------------------1-----|
C#|--2-------2-----2---------2---2-------2-------3-----3-----2-------2-----2-----------3---3----3-----|
G#|3---------------------------0---------------3---------3-3-------------------------3-------3--3-----|
EB|--------------3---------------------------1---------------------------3---------1------------1-----| 

eb|------3-------------3-3/5--0--------0---------------3/p0-------------------|
Bb|----1---1---1-----1---------------1---1---1-----1--------------------------|
F#|--0-------0-----0---------------0-------0-----0---0------------------------|
C#|------------------------------3-------------2-------0----------------------| x1
G#|3-------------2------------------------------------------------------------|
EB|---------------------------------------------------------------------------| 

OUTRO:

eb|------3-------------3-3/5--0--------0-------------3p1-----1----------------|
Bb|----1---1---1-----1---------------1---1---1---1-------1-----1----1---------|
F#|--0-------0-----0---------------0-------0-------1-------1-----1--0---------|
C#|------------------------------3-------------3--------------------2---------| 
G#|3-------------2--------------------------------------------------3---------|
EB|---------------------------------------------------------------------------| 


************************************

| /   slide up
| \   slide down
| h   hammer-on
| p   pull-off
| ~   vibrato
| +   harmonic
| x   Mute note
| b   Bend
| pb  Pre-bend
| br  Bend release
| pbr Pre-bend release
| brb Bend release bend

************************************

            
            
Suggest correction
Creating personal tab
Creating personal tab
You can edit any tab online and save it as your Personal.

You can edit, replace or remove any tab part or add personal notes – all changes will be seen only by you.

Personal tabs can be accessed anytime from any device, even offline.
Learn more »
Give kudos to tab author, rate the tab!
1 2 3 4 5
comments
print report bad tab
guest
You may want to rate the tab now too:
select rating
Wanna post a correction for this tab? Suggest correction