Oops, an error
Loading. Please wait.

They Move On Tracks Of Never-Ending Light Tab

version 1
version 1

Whole song

Interactive

15,004 views 72 this week
1 commentread comment
1 2 3 4 5
x 21
add to favorites
launch autoscroll
font size
0
reset
how to read this tab
guitar tuner
Autoscroll
slow
fast
+/-
esc
set tempo
stop
Help us to improve Ultimate-Guitar.com Take our survey!
×
Author
Difficulty
Tuning
novice
C# G# C# F# A# D#
Tired of seeing inaccurate tabs, so I figured I might as well tab the song for everyone. 
Listen and play along, it's a beautiful song through and through. Note; this is only 
Jeremy's part, Chris just uses an ebow for his parts.

Tuning: Drop C# (THIS IS THEIR TUNING, NOT STANDARD!)

Use a lot of reverb and some slight delay

Whole song is finger plucked. Enjoy!


D#|---------------------------------|
A#|-0------3------3------8------7---|
F#|---0-------------0---------------|
C#|-2--------4-------------9------7-|
G#|--------2------3------7------5---|
C#|---------------------------------|

D#|--------------------------------------------|
A#|-0-----3------3------8------7---/12----\5---|
F#|---0------------0---------------------------|
C#|-2-------4-------------9------7-----12----5-|
G#|-------2------3------7------5---/10----\3---|
C#|--------------------------------------------|

D#|-----------------------------------|
A#|-3----7----8--8--8--8--8--8--8--8--|
F#|-----------------------------------|
C#|---4----7--------------------------|
G#|-2----5----7---9--9--9--9--9--9--9-|
C#|-----------------------------------|

D#|----------------------------------|
A#|-13--13--13--13--13--13--13--13---|
F#|----------------------------------|
C#|---14--14--14--14--14--14--14--14-|
G#|-0--------------------------------|
C#|----------------------------------|

D#|--------------------------|
A#|-7---7--7--7--7--7--7--7--|
F#|--------------------------| x2
C#|---7--7--7--7--7--7--7--7-|
G#|-5------------------------|
C#|--------------------------|

D#|--------------------------|
A#|-5---5--5--5--5--5--5--5--|
F#|--------------------------|
C#|---5--5--5--5--5--5--5--5-|
G#|-3------------------------|
C#|--------------------------|

D#|--------------------------|
A#|-8---8--8--8--8--8--8--8--|
F#|--------------------------|
C#|---9--9--9--9--9--9--9--9-|
G#|-7------------------------|
C#|--------------------------|

D#|--------------------------|
A#|-7---7--7--7--7--7--7--7--|
F#|--------------------------| x2
C#|---7--7--7--7--7--7--7--7-|
G#|-5------------------------|
C#|--------------------------|

D#|--------------------------|
A#|-8---8--8--8--8--8--8--8--|
F#|--------------------------|
C#|---9--9--9--9--9--9--9--9-|
G#|-7------------------------|
C#|--------------------------|

D#|----------------------------------|
A#|-13--13--13--13--13--13--13--13---|
F#|----------------------------------|
C#|---14--14--14--14--14--14--14--14-|
G#|-0--------------------------------|
C#|----------------------------------|

D#|--------------------------|
A#|-7---7--7--7--7--7--7--7--|
F#|--------------------------| x2
C#|---7--7--7--7--7--7--7--7-|
G#|-5------------------------|
C#|--------------------------|

D#|--------------------------|
A#|-5---5--5--5--5--5--5--5--|
F#|--------------------------|
C#|---5--5--5--5--5--5--5--5-|
G#|-3------------------------|
C#|--------------------------|

D#|--------------------------|
A#|-8---8--8--8--8--8--8--8--|
F#|--------------------------|
C#|---9--9--9--9--9--9--9--9-|
G#|-7------------------------|
C#|--------------------------|

D#|--------------------------|
A#|-7---7--7--7--7--7--7--7--|
F#|--------------------------|
C#|---7--7--7--7--7--7--7--7-|
G#|-5------------------------|
C#|--------------------------|

D#|--------------------------|
A#|-3---3--3--3--3--3--3--3--|
F#|--------------------------|
C#|---4--4--4--4--4--4--4--4-|
G#|-2------------------------|
C#|--------------------------|

D#|------------------------------------------------|
A#|-5---5--5--5--5--5--\13--13---12---12--12--12---|
F#|------------------------------------------------|
C#|---5--5--5--5--5--5----14--14----12--12--12--12-|
G#|-3------------------\0--------10----------------|
C#|------------------------------------------------|

D#|----------------------------------|
A#|-8---8--7---7--7--7--7--7--7--7---|
F#|----------------------------------|
C#|---9--9---7--7--7--7--7--7---7--7-|
G#|-7------5-------------------------|
C#|----------------------------------|

D#|------------------------------------------------|
A#|-5---5--5--5--5--5--\13--13---12---12--12--12---|
F#|------------------------------------------------|
C#|---5--5--5--5--5--5----14--14----12--12--12--12-|
G#|-3------------------\0--------10----------------|
C#|------------------------------------------------|

D#|----------------------------------|
A#|-8---8--7---7--7--7--7--7--7--7---|
F#|----------------------------------|
C#|---9--9---7--7--7--7--7--7---7--7-|
G#|-7------5-------------------------|
C#|----------------------------------|

D#|--------------------------|
A#|-7---7--7--7--7--7--7--7--|
F#|--------------------------| x2
C#|---7--7--7--7--7--7--7--7-|
G#|-5------------------------|
C#|--------------------------|

D#|--------------------------|
A#|-7---7--7--7--7--7--7--7--|
F#|--------------------------| x6
C#|---7--7--7--7--7--7--7--7-|
G#|--------------------------|
C#|-0------------------------|

*THIS SECTION AS A WHOLE x4*

D#|--------------------------|
A#|-7---7--7--7--7--8--8--7--|
F#|--------------------------|
C#|---7--7--7--7--7--7--7--7-|
G#|--------------------------|
C#|-0------------------------|

D#|---------------------------------|
A#|-10--10--10--10--10--10--10--10--|
F#|---------------------------------|
C#|----0--0---0---0---0---0---0---0-|
G#|---------------------------------|
C#|-0-------------------------------|

D#|--------------------------|
A#|-7---7--7--7--7--8--8--7--|
F#|--------------------------|
C#|---7--7--7--7--7--7--7--7-|
G#|--------------------------|
C#|-5------------------------|

D#|--------------------------|
A#|-8---7--7--7--7--7--7--7--|
F#|--------------------------|
C#|---7--7--7--7--7--7--7--7-|
G#|--------------------------|
C#|-0------------------------|

*****************************************

D#|-----------------------------------|
A#|-----------------------------------|
F#|-----------------------------------| x10
C#|---0----0----0--------0--------0---|
G#|-9----7----5----12-\5----12-\7-----|
C#|-9----7----5--------5--------7-----|



************************************

| /  Slide up
| \  Slide down

************************************
Suggest correction
comments
print report bad tab
1 comment total.
+2 reply
wbalston 194 Oct 24, 2013 12:04 AM

you are an absolute god for tabbing this. it is perfect. thank you so much

guest
You may want to rate the tab now too:
select rating
Wanna post a correction for this tab? Suggest correction