Oops, an error
Loading. Please wait.

Get Up For The Letdown tab

92 views 1 this week
no commentswrite comment
1 2 3 4 5
3 more votes to show rating
add to favorites
×
Save as Personal and add changes to this tab that will be seen only by you. Learn more ›
×
You can save this tab as Personal to edit and correct it or add notes. All changes will be seen only by you. Learn more »
launch autoscroll
font size
0
reset
how to read this tab
guitar tuner
edit
Autoscroll
slow
fast
+/-
esc
set tempo
stop
This Years Winner Is - Get Up For The Let Down

For song visit: http://www.youtube.com/watch?v=_r_Q7DjBkMI

www.facebook.com/thisyearswinneris

Tuning: Drop D Flat

Intro: Ben

eb----------------------------------------------------------------------------|
bb----------------------------------------------------------------------------|
gb-------------6--7-7-7----14--9-9-9----6--7-7-7---9-9---------9-11-----------|
db--xxxxxxx-------------------------------------------------------------------|
ab--xxxxxxx---4--5-5-5-----12--7-7-7----4--5-5-5---7-7---000--7--9------------|
db--xxxxxxx-----------------------------------------------000-----------------|

eb------------------------------------------------------------------------|
bb------------------------------------------------------------------------|
gb-----6--7-7-7-----14--9-9-9---------------------------------------------|
db--------------------------------------7-5-7-5--------7-5-7-5------------|
ab-----4--5-5-5-----12--7-7-7----000--------------000---------------------|
db--------------------------------000--------------000--------------------|

Verse

eb------------------------------------------------------------------|
bb----77-7-7-88-8-8-88-8--77-7-7--88-8-8--77-7--5-5-5-5-5-5-5-5-----|
gb----77-7-7-77-7-7-77-7--77-7-7--77-7-7--77-7--7-7-7-7-7-7-7-7-----|
db----00-0-0-00-0-0-00-0--00-0-0--00-0-0--00-0----------------------|
ab------------------------------------------------------------------|
db------------------------------------------------------------------|

Pre-Chorus

eb--------------55-----------55-----------55--------------------------|
bb---------55-----------55-----------55-------------------------------|
gb----77-----------77-----------77------------------------------------|
db--------------------------------------------------------------------|
ab--------------------------------------------------------------------|
db--------------------------------------------------------------------|

Break

eb-----------------------------------------------|
bb-----------------------------------------------|
gb---7-------------------------------------------|
db---0-------------------------------------------|
ab---0-------------------------------------------|
db---0-------------------------------------------|

Chorus

eb-----------------------------------------------------------------|
bb-----------------------------------------------------------------|
gb---7777-9999-11-11-11-11-14--14--14--14---14--14--14--14---------|
db-----------------------------------------------------------------|
ab---5555-7777--9--9--9--9-12--12--12--12---12--12--12--12---------|
db-----------------------------------------------------------------|

eb-----------------------------------------------------------------|
bb-----------------------------------------------------------------|
gb----7777-9999----------------------------------------------------|
db-----------------------------------------------------------------|
ab----5555-7777----00-0-00-00000-----------------------------------|
db------------------00-0-00-00000----------------------------------|

Chorus Part Two

eb-------------------10----10---------------------------------------------------|
bb-8---8---10---10--------------10-----10-------8-----8----10----10-------7-----|
gb---7---7----7----7-----7----7------7-----7-------7-----7------7----7----7-----|
db------------------------------------------------------------------------------|
ab------------------------------------------------------------------------------|
db------------------------------------------------------------------------------|

Intro
Verse
PreChorus
Chorus
Interlude

Palm Mute

eb--------------55---------------------------------|
bb----------55-----55------------------------------|
gb------77-----------------------------------------|
db-------------------------------------------------|
ab-------------------------------------------------|
db-------------------------------------------------|

Build up

Palm Mute

eb--------------------------------------------------|
bb--------------------------------------------------|
gb--------------------------------------------------|
db--77777777----------------------------------------|
ab--77777777----------------------------------------|
db--77777777----------------------------------------|

Breakdown

eb----------------------------------------------------------------|
bb----------------------------------------------------------------|
gb---------------------------7--9---------------------------------|
db--00000000----00000000------------------------------------------|
ab--00000000----00000000---5--7-----------------------------------|
db--00000000----00000000------------------------------------------|


eb----------------------------------------------------------------|
bb----------------------------------------------------------------|
gb--------------------------11-9----------------------------------|
db--00000000----00000000------------------------------------------|
ab--00000000----00000000---9--7-----------------------------------|
db--00000000----00000000------------------------------------------|

Chorus Break

eb-----------------------------|
bb-----------------------------|
gb----7-7-7--------------------|
db-----------------------------|
ab----5-5-5--------------------|
db-----------------------------|

Chorus

End

eb----------------------------------------|
bb----------------------------------------|
gb----------------------------------------|
db------7-5-7-5-----7-5-7-5------12\------|
ab--------------------------------12\-----|
db--00------------00--------------12\-----|


Get Up For The Letdown (Ethan)

Intro

eb-----------------------------------------------------------------------------|
bb-----------------------------------------------------------------------------|
gb--------------------------7--7-----------------------------------------------|
db--xxxxxxxx----4--5-5-5---7--7--7-7-7-----4--5-5-5---7-7----------7-9---------|
ab--xxxxxxxx----4--5-5-5---5--5--7-7-7-----4--5-5-5---7-7-----000--7-9---------|
db--xxxxxxxx----4--5-5-5---------7-7-7-----4--5-5-5---7-7-----000--7-9---------|

eb------------------------------------------------------------------------|
bb------------------------------------------------------------------------|
gb------------------7-----------------------------------------------------|
db-----4--5-5-5-----7----7-7-7--------------------------------------------|
ab-----4--5-5-5-----5----7-7-7----000---9-7-9-7----000-9-7-9-7------------|
db-----4--5-5-5----------7-7-7----000--------------000--------------------|

Verse

eb-----------------------------------------------------------------------------------|
bb-----------------------------------------------------------------------------------|
gb-------------------------------------------------------------------5*--------------|
db----------------------------------------------------------------------5*-----------|
ab----4444-4--5555-----4444-4-5555---4444-4-5555--5--7-7-7-7-7-7--------5*-----------|
db----4444-4--5555-----4444-4-5555---4444-4-5555--5--7-7-7-7-7-7----------5*---------|

eb----------------------------------------------------------------------------------|
bb----------------------------------------------------------------------------------|
gb----------------------------------------------------------------------------------|
db----------------------------------------------------------------------------------|
ab----4444-4--5555-----4444-4-00000-00000--4444-4-5555--5--7-7-7-7-7-7--------------|
db----4444-4--5555-----4444-4-00000-00000--4444-4-5555--5--7-7-7-7-7-7--------------|

Pre-Chorus

eb--------------------------------------------------------------|
bb--------------------------------------------------------------|
gb---------------77777777---------------------------------------|
db---99999999---77777777--77777777--5555555---------------------| x4
ab---99999999---55555555--77777777--5555555---------------------|
db---99999999--------------77777777--5555555--------------------|

eb------------------------------------------------------------------------------|
bb------------------------------------------------------------------------------|
gb--7---------------------------------------------------------------------------|
db--0------xx-------------------------------------------------------------------|
ab--0------xx-------------------------------------------------------------------|
db--0------xx-------------------------------------------------------------------|

Chorus

eb-----------------------------------------------------------------|
bb-----------------------------------------------------------------|
gb-----------------------------------------------------------------|
db---555555-777777-999999--999999----------------------------------|
ab---555555-777777-999999--999999----------------------------------|
db---555555-777777-999999--999999----------------------------------|

eb-------------------------------------------------------------------|
bb-------------------------------------------------------------------|
gb-------------------------------------------------------------------|
db---555555-777777---------------------------------------------------|
ab---555555-777777--0-0-0-0-0-0-0-0-0--------------------------------|
db---555555-777777--0-0-0-0-0-0-0-0-0--------------------------------|

eb-----------------------------------------------------------------|
bb-----------------------------------------------------------------|
gb-----------------------------------------------------------------|
db---555555-777777-999999--999999----------------------------------|
ab---555555-777777-999999--999999----------------------------------|
db---555555-777777-999999--999999----------------------------------|

eb-----------------------------------------------------------------------|
bb-----------------------------------------------------------------------|
gb--------------------7--------------------------------------------------|
db---555555-777777---0--------xx-----------------------------------------|
ab---555555-777777---0--------xx-----------------------------------------|
db---555555-777777---0--------xx-----------------------------------------|

Intro
Verse
Pre-Chorus
Chorus

Break

(Ben on his own)

eb------------------------------------------------------------------------------|
bb---3--------------------------------------------------------------------------|
gb---2-----7------11------9-----------------------------------------------------|
db---0-----5-------9------7-----------------------------------------------------|
ab---0-----5-------9------7-----------------------------------------------------|
db---0-----5-------9------7-----------------------------------------------------|

eb-----------------------------------------------------------|
bb-----------------------------------------------------------|
gb-----------------------------------------------------------|
db-----------------------------------------------------------|
ab--00000000--555555555--99999999--77777777------------------|
db--00000000--555555555--99999999--77777777------------------|

Breakdown

eb---------------------------------------------------------------------------|
bb---------------------------------------------------------------------------|
gb---------------------------------------------------------------------------|
db--00000000----00000000---5--7----------------------------------------------|
ab--00000000----00000000---5--7----------------------------------------------|
db--00000000----00000000---5--7----------------------------------------------|

eb---------------------------------------------------------------------------|
bb---------------------------------------------------------------------------|
gb---------------------------------------------------------------------------|
db--00000000----00000000---9--7----------------------------------------------|
ab--00000000----00000000---9--7----------------------------------------------|
db--00000000----00000000---9--7----------------------------------------------|

Chorus break

eb---------------------------------------------------------------------|
bb---------------------------------------------------------------------|
gb---------------------------------------------------------------------|
db----5\----777777--999999--999999-------------------------------------|
ab----5\----777777--999999--999999-------------------------------------|
db----5\----777777--999999--999999-------------------------------------|

eb----------------------------------------------------------------------|
bb----------------------------------------------------------------------|
gb----------------------------------------------------------------------|
db---555555-777777------------------------------------------12\---------|
ab---555555-777777----0-0--9--7--9--7--0-0---9--7--9--7----12\----------|
db---555555-777777----0-0--------------0-0------------------12\---------|

End
Suggest correction
Creating personal tab
Creating personal tab
You can edit any tab online and save it as your Personal.

You can edit, replace or remove any tab part or add personal notes – all changes will be seen only by you.

Personal tabs can be accessed anytime from any device, even offline.
Learn more »
Give kudos to tab author, rate the tab!
1 2 3 4 5
comments
print report bad tab
guest
Wanna post a correction for this tab? Suggest correction