Oops, an error
Loading. Please wait.

Atoms For Peace Bass Tab

version 1
version 1

Whole song

Interactive

4,948 views 6 this week
3 commentsread comments
1 2 3 4 5
x 3
add to favorites
launch autoscroll
font size
0
reset
guitar tuner
Autoscroll
slow
fast
+/-
esc
set tempo
stop
Help us to improve Ultimate-Guitar.com Take our survey!
×
Author
Difficulty
novice
Repeat throughout song

G|-------------13-----------13-----------------13-------------13--------|
D|-------13-10----13-----13----13-10-----13-10----10-13----13----13-----|
A|---11--------------11---------------------------------13----------13--|
E|-----------------------------------11---------------------------------|

"Solo" (for bass)

G|-------------------------------------------------------------|
D|-------------------------------------------------------------|
A|--4-4-4-4-4-4--4--4-3---4-4-4--4-4-4-4--4-3---7-7--7-7--7-7--|
E|--------------------------------------------4----------------|

G|------------------------------------------------------------------------|
D|------------------------------------------------------------------------|
A|--7-7--7-7--7-7--7-7--7-7--7-7--7-7--7-7--7-7--7-7--7-7--7-7--7-7--7-7--|
E|------------------------------------------------------------------------|


This sounds much better on the bass than the guitar as in the previous tabs.
Suggest correction
Give kudos to tab author, rate the tab!
1 2 3 4 5
comments
print report bad tab
3 comments total.
+1 reply
Maitinin 19,542 Nov 28, 2007 05:54 PM

you know, you need some time-indication!

0 reply
Zwicky 153 Dec 03, 2007 07:36 PM

You are probably right! However it is such a short piece (the repeated "verse") and on listening to the song it has
distinct timing. When I get round to some longer ones I will add more in the way of timing and structure.

0 reply
Zwicky 153 Mar 21, 2008 11:19 AM

I made a mistake the E (7) on the A string should be a D# (6) it should read

G|-------------------------------------------------------------|
D|-------------------------------------------------------------|
A|--4-4-4-4-4-4--4--4-3---4-4-4--4-4-4-4--4-3---6-6--6-6--6-6--|
E|--------------------------------------------4----------------|

G|------------------------------------------------------------------------|
D|------------------------------------------------------------------------|
A|--6-6--6-6--6-6--6-6--6-6--6-6--6-6--6-6--6-6--6-6--6-6--6-6--6-6--6-6--|
E|------------------------------------------------------------------------|

Sorry

guest
You may want to rate the tab now too:
select rating
Wanna post a correction for this tab? Suggest correction