Oops, an error
Loading. Please wait.

Black Swan tab

version 5
version 5

Whole song

Interactive

309 views 3 this week
no commentswrite comment
1 2 3 4 5
3 more votes to show rating
add to favorites
×
Save as Personal and add changes to this tab that will be seen only by you. Learn more ›
×
You can save this tab as Personal to edit and correct it or add notes. All changes will be seen only by you. Learn more »
launch autoscroll
font size
0
reset
how to read this tab
guitar tuner
edit
Autoscroll
slow
fast
+/-
esc
set tempo
stop
Author
Difficulty
-------------------------------------------------------------------------------
                             BLACK SWAN - Thom Yorke
-------------------------------------------------------------------------------
Tabbed by: ivanlav
If you dig it, rate and comment!

The other tab out there's pretty good but I like to play the song like this (similar to the live version):
The strumming pattern will help with the pace of the notes.

Tuning (Drop D):

        (once)               (three times)
e|--------------------|------------------------| |
B|--------------------|------------------------|*|
G|------5-------4--4--|------9--------10-10----| |
D|----0-------0-----0-|----0--------0------0---| |
A|--------------------|------------------------|*|
D|--7----7--5-----5---|-10----10--0-----0------| |(repeat) 
    D D UD  D D U DUD    D D UD   D D U DU-D

There's sometimes a variation of the second part that looks like:

|-------------------------| |
|-------------------------|*|
|------9--------10p12-10--| |
|----0--------0-----------| |
|-------------------------|*|
|-10----10--0-------------| | 

            
            
Suggest correction
Creating personal tab
Creating personal tab
You can edit any tab online and save it as your Personal.

You can edit, replace or remove any tab part or add personal notes – all changes will be seen only by you.

Personal tabs can be accessed anytime from any device, even offline.
Learn more »
Give kudos to tab author, rate the tab!
1 2 3 4 5
comments
print report bad tab
guest
You may want to rate the tab now too:
select rating
Wanna post a correction for this tab? Suggest correction