Oops, an error
Loading. Please wait.

Feeling Pulled Apart By Horses Bass Tab

version 1
version 1

Whole song

4,039 views 6 this week
no commentswrite comment
1 2 3 4 5
please rate
add to favorites
launch autoscroll
font size
0
reset
guitar tuner
Autoscroll
slow
fast
+/-
esc
set tempo
stop
Help us to improve Ultimate-Guitar.com Take our survey!
×
Author
Capo
2nd fret
Thom Yorke
Feeling Pulled Apart by Horses

Capo 2nd fret

part 1

G-------------------------------------------------------------|
D-------------------------------------------------------------|
A-------------------------------------------------------------|
E-(0)-11--11-12--0--11--11-12--0--11--11-12--0--11--11-12-----|

G-------------------------------------------------------------|
D-------------------------------------------------------------|
A-------------------------------------------------------------|
E--0--15--15-14--0--11-11--12--0--15--15-14--0--15--15-14-----|

part 2

G------------7---9-9---7-------|
D---7-10p7-5---------7---------|
A--------------7---------------|
E------------------------------|


please rate & comment

have fun
Suggest correction
Give kudos to tab author, rate the tab!
1 2 3 4 5
comments
print report bad tab
guest
You may want to rate the tab now too:
select rating
Please do not post tabs as comments. Select "correction" instead!