Oops, an error
Loading. Please wait.

Feeling Pulled Apart By Horses Bass Tab

version 2
version 2

Whole song

6,192 views 21 this week
2 commentsread comments
1 2 3 4 5
excellent!
x 4
add to favorites
launch autoscroll
font size
0
reset
guitar tuner
Tab Pro tools
  • play this tab
  • loop segment
  • change instrument
  • show fretboard
  • metronome
×
Best way to learn
"Feeling Pulled Apart By Horses"
Autoscroll
slow
fast
+/-
esc
set tempo
stop
Contributor
Main Riff 

Updated
Break is updated 02/02/14

-------------------------------------------------------------------------------|
-------3--3-4----------3--3-4----------3--3-4-----------3--3-4-----------------|
-------------------------------------------------------------------------------|
---------------2----------------2-------------2-----------------2--------------|


-------2--2-1--------------------------2--2--1----------2--2-1--------------------|
----------------------3--3--4-----------------------------------------------------|
----------------------------------------------------------------------------------|
--------------2----------------2----------------2---------------2-----------------|

Break

------------------------------------------------------|
----------------------14----16-16---------------------|
-------14--h17-p14-12------------------x--17\14-------|
-------------------------14---------------------------|
comments
print report bad tab
2 comments total.
0 reply
cris2gonz wrote on January 16 2014, 10:41 pm

i think that, in the break, every fret is moved up one.

0 reply
Intriscape wrote on February 2 2014, 10:48 pm

You are correct! I'll update the tab.

I want to post or [tab]
guest
You may want to rate the tab now too:
select rating
Please do not post tabs as comments. Select "correction" instead!