Oops, an error
Loading. Please wait.

Harrowdown Hill Bass Tab

7,781 views 18 this week
1 commentread comment
1 2 3 4 5
excellent!
x 3
add to favorites
launch autoscroll
font size
0
reset
guitar tuner
Autoscroll
slow
fast
+/-
esc
set tempo
stop
Help us to improve Ultimate-Guitar.com Take our survey!
×
Author
Difficulty
novice
-------------------------------------------------------------------------------
			     Harrowdown Hill - Thom Yorke
-------------------------------------------------------------------------------

Tabbed By : jirolico
e-mail: jirolico@gmail.com

Tuning: Normal
Main Riff
G|------------------------------------------------------------------------------|
D|1212-1212-11------------------------------------------------------------------|
A|-------------1210-------------------------------------------------------------|
E|------------------------------------------------------------------------------|

Variation at 1:32-1:46 & 3:03

G|------------------------------------------------------------------------------|
D|1717-1717-16------------------------------------------------------------------|
A|-------------1714-------------------------------------------------------------|
E|------------------------------------------------------------------------------|

Occasional Variation

G|------------------------------------------------------------------------------|
D|1212-1212------11h12----------------------------------------------------------|
A|----------1210----------------------------------------------------------------|
E|------------------------------------------------------------------------------|

Outro
Thom mixes between these two
G|-------------------------------------------------------------------------------|
D|1212-1212--11p12--------------------1212-1212-11p12----11p12-------------------|
A|-----------------1210------or-----------------------12-------------------------|
E|-------------------------------------------------------------------------------|
Suggest correction
Give kudos to tab author, rate the tab!
1 2 3 4 5
comments
print report bad tab
1 comment total. show 1 bad comment
guest
You may want to rate the tab now too:
select rating
Please do not post tabs as comments. Select "correction" instead!