Oops, an error
Loading. Please wait.

Lotus Flower Tab

version 1
version 1

Whole song

Interactive

25,850 views 3 this week
5 commentsread comments
1 2 3 4 5
accurate
x 7
add to favorites
launch autoscroll
font size
0
reset
how to read this tab
guitar tuner
Autoscroll
slow
fast
+/-
esc
set tempo
stop
Help us to improve Ultimate-Guitar.com Take our survey!
×
Author
Difficulty
intermediate
Hello, i've never tabbed out anything and I really suck at guitar too.......
saying that I went to the Echoplex show that Thom Yorke first
played this song solo. Warren from Youtube pretty much nailed
 it so here's what he taught me basically...
Tune down the 6th string (improper terms used sorry)

rift 1
-----------------|
----2----2---2---|
---3----3--------|
-----------------|
-----------3-----|
-3----0----------| repeat about 4x

rift 2
-----------------|
----0----0---0---|
-----------------|
---0----0--------|
-----------------|
-/5----2---3-----| repeat 2x then go back to original rift

Those alternate a few times and then it move on to...

rift 3
---------------------------------------------|
---------------------------------------------|
---7---7-------7--7------3---3-----3----2----|
--7---7----7--7--7--7---0---0---0-0----0-----|
-----(8)---------(8)-------------------------|
-8---8---8--8---8--8--/5---5---5-5---/3------| repeat a few times, return to intro


Thats about it. If you listen to the recordings on youtube at the moment you will hear 
does not play it this way exactly, he plays it a bit sloppier (on purpose i'm sure). Have fun
Suggest correction
comments
print report bad tab
5 comments total. Showing first comments.
0 reply
Jeboo 10 wrote on January 25 2010, 03:54 am

Think you got a couple of strings mixed up here. Should be:

riff 1
-----------------|
----3----3---3---|
---2----2--------|
-----------------|
-----------3-----|
-3----0----------|

Apart from that, sounds good. I'm pretty sure this is in drop D too, from what you said. Just clarifying it for anyone wondering.

0 reply
ReusableCatMilk 31 wrote on February 27 2010, 02:50 pm

Yeah thanks, i actually noticed i messed up and tried posting a new tab but it never got approved. And yeah drop D :)))

0 reply
ReusableCatMilk 31 wrote on May 5 2010, 06:43 pm


riff 1
-----------------|
----3----3---3---|
---2----2--------|
-----------------|
-----------3-----|
-3----0----------|

guest
You may want to rate the tab now too:
select rating
Please do not post tabs as comments. Select "correction" instead!