Oops, an error
Loading. Please wait.

Open The Floodgates Tab

2,304 views 3 this week
no commentswrite comment
1 2 3 4 5
please rate
add to favorites
launch autoscroll
font size
0
reset
how to read this tab
guitar tuner
Autoscroll
slow
fast
+/-
esc
set tempo
stop
Help us to improve Ultimate-Guitar.com Take our survey!
×
Author
Difficulty
novice
-----------------------------------------------------------------------------
                             Open the Foodgates - Thom Yorke
-----------------------------------------------------------------------------
Tabbed by:Mikedangles
Email:81masmith@gmail.com
Date tabbed: 1st-7/10/09*

Tuning:EADGBe

Hi thom fans.
This is a new song that was played live solo by Thom at the echoplex in LA at the 
start of october 2009.

The song is hypnotic .. i couldnt stop lstening to it so i thought i may as well figure 
out so i could sing along outside of my head.

Its obviously a piano song but these are my simple equivalents clumsily transposed for the guitar.

*Progression repeated throughout

   "Dont bore us     Get to the chorus      open   flood gates"
e|-0------------5-3-0-----------------5-3-0-----------5-3-2-------------------|
B|-1----------------1---------------------1---------------3-------------------|
G|-2------------5-5-2-----------------5-5-2-----------5-5-2-------------------|
D|-3----------------3---------------------3---------------2-------------------|
A|----------------------------------------------------------------------------|
E|----------------------------------------------------------------------------|

   Fmaj7            Fmaj7                 Fmaj7            Am/D

  -Progression repeated throughout


"Don't bore us
 Get to the chorus
 Open the floodgates
 We want the good bits
 Without the bullshit
 And no heartache

 Hold on
 Hold on
 Hold on

 No Pain and
 No suffering
 and noone gets hurt
 we absolve you
 we absolve you
 open the floodgates


 Hold on
 Hold on
 Hold on"

*Please update and amend where needed.
Suggest correction
Give kudos to tab author, rate the tab!
1 2 3 4 5
comments
print report bad tab
guest
You may want to rate the tab now too:
select rating
Please do not post tabs as comments. Select "correction" instead!