Oops, an error
Loading. Please wait.

Skip Divided Bass Tab

2,583 views 3 this week
no commentswrite comment
1 2 3 4 5
2 more votes to show rating
add to favorites
launch autoscroll
font size
0
reset
guitar tuner
Autoscroll
slow
fast
+/-
esc
set tempo
stop
Help us to improve Ultimate-Guitar.com Take our survey!
×
Author
Thom Yorke - Skip Divided | Tabbed by Bobbroana/Andy (Acder1@live.co.uk)

G|--------------------------------------------------|
D|--------------------------------------------------|
A|14-11--14-10-7------------------------------------|
E|--------------------------------------------------|x4

G|--------------------------------------------------|
D|--------------------------------------------------|
A|14-11--14-10--14-7--------------------------------|
E|--------------------------------------------------|x3

G|--------------------------------------------------|
D|--------------------------------------------------|
A|10-3-10-7-----------------------------------------|
E|--------------------------------------------------|x2

G|--------------------------------------------------|
D|--------------------------------------------------|
A|14-11--14-10--14-7--------------------------------|
E|--------------------------------------------------|x2

G---------------------------------------------------|
D|--------------------------------------------------|
A|10-3-10-7-----------------------------------------|
E|--------------------------------------------------|x2

G|--------------------------------------------------|
D|--------------------------------------------------|
A|14-11--14-10--14-7--------------------------------|
E|--------------------------------------------------|x2

G---------------------------------------------------|
D|--------------------------------------------------|
A|10-3-10-7-----------------------------------------|
E|--------------------------------------------------|x2


G|--------------------------------------------------|
D|--------------17----------------------------------|
A|14-10--17-14-----19-------------------------------|
E|--------------------------------------------------|


G|-------------------------------------------------------|
D|-------------------------------------------------------|
A|15-14-11-7--14-11--14-1--14-10--14-7--14-11--14-10-14-7|
E|-------------------------------------------------------|

G---------------------------------------------------|
D|--------------------------------------------------|
A|10-3-10-7-14-10-10-3------------------------------|
E|--------------------------------------------------|

Thom Yorke - Skip Divided | Tabbed by Bobbroana/Andy (Acder1@live.co.uk)
Suggest correction
Give kudos to tab author, rate the tab!
1 2 3 4 5
comments
print report bad tab
guest
You may want to rate the tab now too:
select rating
Wanna post a correction for this tab? Suggest correction