Oops, an error
Loading. Please wait.

The Hollow Earth Bass Tab

582 views 1 this week
no commentswrite comment
1 2 3 4 5
3 more votes to show rating
add to favorites
launch autoscroll
font size
0
reset
guitar tuner
Autoscroll
slow
fast
+/-
esc
set tempo
stop
Help us to improve Ultimate-Guitar.com Take our survey!
×
Author
Verse
-----|--------------|----------|--------------|---------------|--------------
-----|--------------|----------|--------------|---------------|--------------
---6/|18-18------18\|8-8--8--8/|13-13--13--13-|-11-11--11--11-|-10-10--10-10-
-----|--------------|----------|--------------|---------------|--------------
                                    
-------------|-----------|----------|--------------|---------|
-------------|-----------|----------|--------------|---------|
---8-8--8--8-|-8-8--8--8-|6-6--6--6/|18-18------18\|---------|
-------------|-----------|----------|--------------|8-8--8---|
    
Break 1
-8-8--8-|---------|-8-8--8-|------------|
--------|---------|--------|------------|
--------|---------|--------|------------|
--------|-8-8--8--|--------|--8-8--8----|

Chorus
-6-8--8-|---------|-6-8--8-|------------|-6-8--8-|-------|-------|---------|
--------|---------|--------|------------|--------|-------|-------|---------|
--------|---------|--------|------------|--------|-9-9--9|-8-8--8|---------|
--------|-8-8--8--|--------|--8-8--8----|--------|-------|-------|-0-0--0-6|

----------|----------|----------|----------|-----------|-7-7--7|-------|
----------|----------|----------|----------|-----------|-------|-------|
-6-6--6--6|----------|-6-6--6--6|----------|-10-10--10-|-------|-9-9--9|
----------|-8-8--8--8|----------|-8-8--8--8|-----------|-------|-------|

-------|
-------|
-8-8--8|
-------|

Break 2
-------------|-------------|-------------|
-------------|-------------|-------------|
-------------|-------------|-------------|
-5--5-5--3-5-|-5--5-5--3-5-|-5--5-5--3-5-|

Outro
-------------|-------|
-------------|-------|
----6-6--6--6|-5-5--5|
-8-----------|-------|


Suggest correction
Give kudos to tab author, rate the tab!
1 2 3 4 5
comments
print report bad tab
guest
You may want to rate the tab now too:
select rating
Wanna post a correction for this tab? Suggest correction