Oops, an error
Loading. Please wait.

Talk To Me Acoustic tab

478 views 1 this week
no commentswrite comment
1 2 3 4 5
2 more votes to show rating
add to favorites
×
Save as Personal and add changes to this tab that will be seen only by you. Learn more ›
×
You can save this tab as Personal to edit and correct it or add notes. All changes will be seen only by you. Learn more »
launch autoscroll
font size
0
reset
how to read this tab
guitar tuner
edit
Autoscroll
slow
fast
+/-
esc
set tempo
stop
Author
Difficulty
intermediate
Gm      D7      Cm      Eb      Bb
e|-3-|  e|-3-|  e|-3-|  e|-6-|  e|-6-|
B|-3-|  B|-3-|  B|-4-|  B|-8-|  B|-6-|
G|-3-|  G|-5-|  G|-5-|  G|-8-|  G|-7-|
D|-5-|  D|-4-|  D|-5-|  D|-8-|  D|-8-|
A|-5-|  A|-5-|  A|-3-|  A|-6-|  A|-8-|
E|-3-|  E|-3-|  E|-3-|  E|-X-|  E|-6-|


[Intro - part#1]
    Gm            D7             Cm            Gm
e|--------------|--------------|-------------|--------------|
B|--3---3---3---|-3---3----3---|-4---4---4---|-3---3---3----|
G|--3---3---3---|-5---5----5---|-5---5---5---|-3---3---3----|
D|----5---5-----|---4----4-----|---5---5-----|---5---5------|
A|--5---5---5---|-5---5----5---|-3---3---3---|-5---5---5----|
E|--------------|--------------|-------------|--------------|

[Intro - part#2]
    Gm              D7            Cm           Gm
e|---------------|-------------|-------------|--------------|
B|--3---3---3----|-3---3---3---|-4---4---4---|-3---3---3----|
G|--3---3---3----|-5---5---5---|-5---5---5---|-3---3---3----|
D|----5---5---5--|---4---4---4-|---5---5---5-|---5---5---5--|
A|--5---5---5----|-5---5---5---|-3---3---3---|-5---5---5----|
E|---------------|-------------|-------------|--------------|
  
[Verse 1 - Picking, 4x] 
    Gm                       D7           
      My father wants the   best for me
e|-------------------------|------------------------|
B|--3--------3--------3----|-3--------3--------3----|
G|--3--------3--------3----|-5--------5--------5----|
D|-------5--------5------5-|------4--------4------4-|
A|--5--------5--------5----|-5--------5--------5----|
E|-------------------------|------------------------|

    Cm                       Gm
      But I'm feeling super low
e|-------------------------|------------------------||
B|--4--------4--------4----|-3--------3--------3----||
G|--5--------5--------5----|-5--------5--------5----||
D|-------5--------5------5-|------4--------4------4-||+3x for rest of verse
A|--3--------3--------5----|-5--------5--------5----||
E|-------------------------|------------------------||

Gm                     D7           
   I wonder what's the best for me
Cm                               Gm
‘Cause I don't know which way to go

Gm                    D7           
   He tells me I will be alright
Cm                   Gm
I just need a little time
Gm                    D7           
   I'm trying but my tears are dry
Cm                 Gm 
I have wasted them online
 
[Chorus 1 - Pick, 2x]  
    Eb                       Bb
    Talk to me .....         Talk to me
e|------------------------|-------------------------|
B|--8--------8--------8---|--6--------6--------6----|
G|--8--------8--------8---|--7--------7--------7----|
D|-------8--------8-------|-------8--------8--------|
A|--6--------6--------6---|--8--------8--------8----|
E|------------------------|-------------------------|

    D7                       Gm
     Tell me how you really  feel
e|------------------------|-------------------------||
B|--4--------4--------4---|--3--------3--------3----||
G|--5--------5--------5---|--3--------3--------3----||
D|-------5--------5-------|-------5--------5--------||+1x for rest of chorus
A|--3--------3--------3---|--5--------5--------5----||
E|------------------------|-------------------------||

Eb               Bb
Talk to me ..... Talk to me
D7                               Gm
Tell me what is fake and what is real


[Bridge - Pick, 1x] 
    Eb             Bb            D7            Gm
e|---------------|--------------|-------------|-------------|
B|--8----8----8--|-3----3----3--|-4----4----4-|-3----3----3-|
G|--8----8----8--|-5----5----5--|-5----5----5-|-3----3----3-|
D|-----8----8----|----4----4----|----5----5---|----5----5---|
A|--6----6----6--|-5----5----5--|-3----3----3-|-------------|
E|---------------|--------------|-------------|-5----5----5-|
 

    Eb             Bb            D7            Cm
e|---------------|--------------|-------------|-------------|| 
B|--8----8----8--|-3----3----3--|-4----4----4-|-4----4----4-||
G|--8----8----8--|-5----5----5--|-5----5----5-|-5----5----5-||
D|-----8----8----|----4----4----|----5----5---|----5----5---||
A|--6----6----6--|-5----5----5--|-3----3----3-|-3----3----3-||
E|---------------|--------------|-------------|-------------||
 
[Verse 2 - Strum] 
Gm                  D7   
   I want to find escape tonight
Cm                             Gm
   Wake me up when this summer comes
Gm                    D7
   Painkillers for my brain tonight
Cm                          Gm
   I want to fade until I'm gone

Gm                  D7
   It burns when it caresses me
Cm                      Gm 
   Like a medusa in the sand
Gm                   D7
   It hurts but it possesses me
Cm                    Gm 
   But I can feel myself again
 
[Chorus 2 - Strum]  
Eb              Bb
Talk to me ..... Talk to me
D7                        Gm
   Tell me how you really feel
Eb               Bb
Talk to me ..... Talk to me
D7                               Gm
Tell me what is fake and what is real
 
[Ending/outro - Strum] 
Eb   -   Bb   -   D7   -   Gm
Eb   -   Bb   -   D7   -   Cm
Eb   -   Bb   -   D7   -   Gm
Eb   -   Bb   -   D7   -   Gm
Eb   -   Bb   -   D7   -   Gm 

            
            
Suggest correction
Creating personal tab
Creating personal tab
You can edit any tab online and save it as your Personal.

You can edit, replace or remove any tab part or add personal notes – all changes will be seen only by you.

Personal tabs can be accessed anytime from any device, even offline.
Learn more »
Give kudos to tab author, rate the tab!
1 2 3 4 5
comments
print report bad tab
guest
You may want to rate the tab now too:
select rating
Wanna post a correction for this tab? Suggest correction