Oops, an error
Loading. Please wait.

Moi Qui Me Croyais Un Saint chords

82 views 1 this week
no commentswrite comment
1 2 3 4 5
3 more votes to show rating
add to favorites
×
Save as Personal and add changes to this tab that will be seen only by you. Learn more ›
×
You can save this tab as Personal to edit and correct it or add notes. All changes will be seen only by you. Learn more »
launch autoscroll
font size
0
reset
transpose
0
reset
simplify chords
display chords
guitar tuner
edit
Autoscroll
slow
fast
+/-
esc
set tempo
stop
Author
Difficulty
Strumming
There is no strumming pattern for this song yet. and get +5 IQ
----------------------------------------------------------------------------------------------------
                          Thomas Fersen - Moi Qui Me Croyais Un Saint
----------------------------------------------------------------------------------------------------

Album : Le Jour Du Poisson (1997)
Tempo : 96
E-mail: gwendal.mollo@orange.fr
Tabbed by: newg    (http://profile.ultimate-guitar.com/newg/)

Intro :
E |--1-------------------------|--0-----------0--------0----|
B |-----3--1--3--0--3-----0----|-----1-----1-----2----------|
G |--------2-----------0-------|--------0-----------2-------|
D |--0-----------------0-------|--------2-----------2-------|
A |----------------------------|--3-----------0-------------|
E |--------------3-------------|----------------------------|

   
  |--1-------------------------|-----------3--0-------------|
  |-----3--1--3--0--3-----3----|-----0--3-----1--3--1-------|
  |--------2-----------2-------|--0-----------0-------------|
  |--0-----------------0-------|--------0-------------------|
  |----------------------------|--------------3-------------|
  |--------------3-------------|--3-------------------------|



Refrain :
Dm            G              C            A
Moi qui me croyais un saint, il m'est apparu 
Dm                  G     G7             C
Que j'ai un côté malsain, donnant sur la rue


E                     A       A7                 Dm
Sous mes lunettes en écaille, je louche un p'tit peu 
Dm7        G            G7            C
Du côté de la canaille, timide et honteux
E           A          A7            Dm
Et du frêle collégien, je quitte l'emploi
Dm7               G             G7           C
Mes pas dans ceux des vauriens, en marge des lois

[Refrain]

E            A          A7         Dm
Et je troque l'auréole, pour une casquette 
Dm7           G            G7           C
Et les fumées de l'alcool, dans une guinguette 
E                 A           A7        Dm
J'vais fêter mes fiançailles, avec le milieu
Dm7                G                   G7               C
Loin des beaux quartiers d'Versailles, dans les mauvais lieux

E A A7 Dm G G7 C

Dm            G         C                  A
Je vais jouer au jardin, oui, mais quelque fois 
Dm               G             G7              C
Je mets de l'eau dans mon vin, je tourne et je bois
E                     A           A7              Dm
J'troque mes lunettes en écaille, mes lunettes de bleu
Dm7          G              G7         C
Je deviens Jésus-la-Caille, baron du milieu
E             A           A7             Dm
Et les filles du collège, hautaines autrefois
Dm7          G             G7             C
Désormais me font cortège, et jouent avec moi 

E A A7 Dm G G7 C

[Refrain]

E                     A           A7              Dm
Sous mes lunettes en écailles, je louche un p'tit peu 
Dm7        G            G7           C
Du côté de la canaille, timide et honteux. 
E                     A     A7               Dm
Mais pour sortir du bottin, c'est moins dangereux 
Dm7              G        G7            C
D'être doucement cabotin,   de rêver un peu

E A A7 Dm G G7 C

 
Suggest correction
Creating personal tab
Creating personal tab
You can edit any tab online and save it as your Personal.

You can edit, replace or remove any tab part or add personal notes – all changes will be seen only by you.

Personal tabs can be accessed anytime from any device, even offline.
Learn more »
Give kudos to tab author, rate the tab!
1 2 3 4 5
comments
print report bad tab
guest
You may want to rate the tab now too:
select rating
Wanna post a correction for this tab? Suggest correction