Oops, an error
Loading. Please wait.

Moonsilver tab

181 views 3 this week
no commentswrite comment
1 2 3 4 5
3 more votes to show rating
add to favorites
×
Save as Personal and add changes to this tab that will be seen only by you. Learn more ›
×
You can save this tab as Personal to edit and correct it or add notes. All changes will be seen only by you. Learn more »
launch autoscroll
font size
0
reset
how to read this tab
guitar tuner
edit
Autoscroll
slow
fast
+/-
esc
set tempo
stop
Author
Difficulty
****************************************************************************************************************
Artist: Thomas Helmig.
Song: Moonsilver.
Album: Past Forward.
Year: 2010.

Hope you will all enjoy this Thomas Helmig Tab.
I searched the net to find a tab for this song, but couldn't find any, so here it is!

Tabbed by: Kenni.
E-mail: kdbproduction@hotmail.com

Tuning: Standard.

****************************************************************************************************************

Intro: F#m - E - D - A x1

Verse 1:
          F#m             E
Come over here sit by the window
D                  A
Moonsilver on your face
          F#m               E
I feel so weirdie I feel so hollow
          D                   A
Where I'm at is such a lonely place
          D - Let it ring out!
So if you walk up stairs I'll follow
D - Let it ring out!
Show you something truely important in life


Little guitar riff into Chorus.
e-------------|
B-------------|
G-------------|
D-------------|
A-2hb(3)-p0---|
E-----------2-|

Chorus:
F#m      E       D       A
 I wanna be your lover tonight

Little guitar riff into Chorus.
e-------------|
B-------------|
G-------------|
D-------------|
A-2hb(3)-p0---|
E-----------2-|

F#m      E       D       A
 I wanna be your lover tonight


Verse 2:
               F#m             E
Girl I've been working so many hours
D                          A
Groove until the groove is gone
       F#m                 E
I need directions and destenations
         D                  A
I need a favour baby one on one
          D - Let it ring out!
Would you stand in front of the mirror
     D - Let it ring out!
Introduse me to the man I forgot to be


Chorus:

Little guitar riff into Chorus.
e-------------|
B-------------|
G-------------|
D-------------|
A-2hb(3)-p0---|
E-----------2-|

F#m     E       D       A
I wanna be your lover tonight

Little guitar riff into Chorus.
e-------------|
B-------------|
G-------------|
D-------------|
A-2hb(3)-p0---|
E-----------2-|

F#m     E       D       A
I wanna be your lover tonight
        F#m  E  D
I wanna be
       F#m      E  D
All I wanna be

Solo:

e---------------------------|
B-10---10-10---10-----------|
G-9h11-11-11p9-9--------9---| X2
D-----------------11s9------|
A-------------------------9-|
E---------------------------|

e----------------------------|
B-10---10-10---10------------|
G-9h11-11-11p9-9-------------| X1
D-----------------11s9-7---7-|
A------------------------9---|
E----------------------------|

e---------------------------|
B-10---10-10---10-----------|
G-9h11-11-11p9-9--------9---| X2
D-----------------11s9------|
A-------------------------9-|
E---------------------------|

e-------------------------------|
B-10---10-10---10---------------|
G-9h11-11-11p9-9-------9--------| X1
D-----------------9s11---11s9-7-|
A-------------------------------|
E-------------------------------|


3 Verse: (1 Verse) 
          F#m             E
Come over here sit by the window
D                  A
Moonsilver on your face
          F#m               E
I feel so weirdie I feel so hollow
          D                   A
Where I'm at is such a lonely place
          D - Let it ring out!
So if you walk up stairs I'll follow
D - Let it ring out!
Show you something truely important in life


Little guitar riff into Chorus.
e-------------|
B-------------|
G-------------|
D-------------|
A-2hb(3)-p0---|
E-----------2-|

Chorus:
F#m     E       D       A
I wanna be your lover tonight

Little guitar riff into Chorus.
e-------------|
B-------------|
G-------------|
D-------------|
A-2hb(3)-p0---|
E-----------2-|

F#m     E       D       A
I wanna be your lover tonight

Wanna be your love baby

Solo riff comes in again here:
e---------------------------|
B-10---10-10---10-----------|
G-9h11-11-11p9-9--------9---| X2
D-----------------11s9------|
A-------------------------9-|
E---------------------------|

e----------------------------|
B-10---10-10---10------------|
G-9h11-11-11p9-9-------------| X1
D-----------------11s9-7---7-|
A------------------------9---|
E----------------------------|

e---------------------------|
B-10---10-10---10-----------|
G-9h11-11-11p9-9--------9---| X2
D-----------------11s9------|
A-------------------------9-|
E---------------------------|

e-------------------------------|
B-10---10-10---10---------------|
G-9h11-11-11p9-9-------9--------| X1
D-----------------9s11---11s9-7-|
A-------------------------------|
E-------------------------------|

F#m     E       D       A
I wanna be your lover tonight (lover)
F#m     E       D       A
I wanna be your lover tonight

Outro: F#m - E - D - A x2

End the song on the A chord.

            
            
Suggest correction
Creating personal tab
Creating personal tab
You can edit any tab online and save it as your Personal.

You can edit, replace or remove any tab part or add personal notes – all changes will be seen only by you.

Personal tabs can be accessed anytime from any device, even offline.
Learn more »
Give kudos to tab author, rate the tab!
1 2 3 4 5
comments
print report bad tab
guest
You may want to rate the tab now too:
select rating
Wanna post a correction for this tab? Suggest correction