Oops, an error
Loading. Please wait.

Rivers intro tab

version 1
version 1

Intro

  • The tab is more accurate compared to the other versions.
9,847 views 9 this week
1 commentread comment
1 2 3 4 5
x 6
add to favorites
×
Save as Personal and add changes to this tab that will be seen only by you. Learn more ›
×
You can save this tab as Personal to edit and correct it or add notes. All changes will be seen only by you. Learn more »
launch autoscroll
font size
0
reset
how to read this tab
guitar tuner
edit
Autoscroll
slow
fast
+/-
esc
set tempo
stop
-------------------------------------------------------------------------------
                             Rivers - Thomas Jack
-------------------------------------------------------------------------------
Tabbed by: Sam Eschker
E-mail: sjeschker@gmail.com

Tuning: Standard w/ Capo 3

Really great song. Hope y'all enjoy. It stays the same pattern
throughout most of the song.

    Am                               F
e|---------1--------------1-------|--------------------------------|
B|-----2-----2--------2-----2-----|---------1--------------1-------|
G|-------------2--------------2---|-----2-----2--------2-----2-----|
D|--------------------------------|-------------3--------------3---|
A|--0--------------0--------------|--------------------------------|
E|--------------------------------|--1--------------1--------------|

    C                               Bm7
e|-----------------0h1p0----------|--------------------------------|
B|---------1--------------1-------|--------------------------------|
G|-----0-----0--------------0-----|----------2-------------2-------|
D|-------------2--------------2---|------0-----0-------0-----0-----|
A|--3-----------------------------|--2-----------2--2----------2---|
E|--------------------------------|--------------------------------|


************************************

| h  Hammer-on
| p  Pull-off

************************************

            
            
Suggest correction
Creating personal tab
Creating personal tab
You can edit any tab online and save it as your Personal.

You can edit, replace or remove any tab part or add personal notes – all changes will be seen only by you.

Personal tabs can be accessed anytime from any device, even offline.
Learn more »
comments
print report bad tab
1 comment total.
0 reply
dc162013 31 Aug 04, 2015 04:56 PM

I feel like the Am bit is wrong and is a string too high. Not the 0 but the 2s and 1, bring them down a string and it sounds right.

Also since that's not even an Am lol.

Am    
e|--------------------------------|
B|---------1--------------1-------|
G|-----2-----2--------2-----2-----|
D|-------------2--------------2---|
A|--0--------------0--------------|
E|--------------------------------|


Like that

guest
Wanna post a correction for this tab? Suggest correction