Oops, an error
Loading. Please wait.

Rivers Tab

version 3
version 3

Intro

  • The tab is more accurate compared to the other versions.
124 views 3 this week
no commentswrite comment
1 2 3 4 5
1 last vote to show rating
add to favorites
launch autoscroll
font size
0
reset
how to read this tab
guitar tuner
×
Best way to learn
"Rivers"
Autoscroll
slow
fast
+/-
esc
set tempo
stop
Author
Difficulty
Capo
  follow
novice
3rd fret
About this tab version
The tab is more accurate compared to the other versions. Was this info helpful? Yes No
-------------------------------------------------------------------------------------------------------------
                                          Artist - Thomas Jack
                                         **********************
                                             Song - Rivers
                                            ***************
                                          Tabbed By - DALY
                                         **********************
-------------------------------------------------------------------------------------------------------------

Tuning = Standard

CAPO 3rd FRET


[Intro]

           
            Am                     F                      C                       Bm7
  
e|---------------------|---------------------|-------------0h1p0-------|---------------------|
B|-----1---------1-----|-----1---------1-----|-------1-----------1-----|---------------------|
G|-------2---------2---|-------2---------2---|-----0---0-----------0---|-----2---------2-----|
D|---2-----2---2-----2-|---3-----3---3-----3-|---2-------2-----------2-|---0---0-----0---0---|
A|-0---------0---------|---------------------|-3-----------------------|-2-------2-2-------2-|
E|---------------------|-1---------1---------|-------------------------|---------------------|



************************************

| h  Hammer-on
| p  Pull-off

************************************
Suggest correction
Give kudos to tab author, rate the tab!
1 2 3 4 5
comments
print report bad tab
guest
You may want to rate the tab now too:
select rating
Wanna post a correction for this tab? Suggest correction