Oops, an error
Loading. Please wait.

Die A Happy Man Tab

version 1
version 1

Solo

Whole song

  • This a full and complete tablature of the song, sp... Show more
424 views 69 this week
no commentswrite comment
1 2 3 4 5
2 more votes to show rating
add to favorites
launch autoscroll
font size
0
reset
how to read this tab
guitar tuner
Autoscroll
slow
fast
+/-
esc
set tempo
stop
Help us to improve Ultimate-Guitar.com Take our survey!
×
Author
Difficulty
intermediate
Thomas Rhett - Die A Happy Man 

[Intro] Slide Guitar

     D        Bm       G         D
e|---------------------------------------------------------------------------|
B|--------------------------------5--/--7--\----3--3-------------------------|
G|---------------------------------------------------------------------------|
D|---------------------------------------------------------------------------|
A|---------------------------------------------------------------------------|
E|---------------------------------------------------------------------------|

    D        Bm       G          D
e|--------------------7-\-5--------------------------------------------------|
B|------------------------------7---/---10-----------------------------------|
G|---------------------------------------------------------------------------|
D|---------------------------------------------------------------------------|
A|---------------------------------------------------------------------------|
E|---------------------------------------------------------------------------|


[Solo] starting on the D from the end of the Chorus 

    D         D                    Bm        G                   D
e|------10----10-------------------------------------------------------------|
B|-/10------------10-\-8----6/7--6/7----------8-/-10-----6/7----6/7----------|
G|-------------------------------------7-------------------------------------|
D|---------------------------------------------------------------------------|
A|---------------------------------------------------------------------------|
E|---------------------------------------------------------------------------|

    (D)           D           Bm        G                     D
e|--12-\-10-------10---10/12--------14-/-15-\-14-----------------------------|
B|-----------12---------------12-------------------13-/--15---15-------------|
G|---------------------------------------------------------------------------|
D|---------------------------------------------------------------------------|
A|---------------------------------------------------------------------------|
E|---------------------------------------------------------------------------|


************************************

| x   Dead note
| g   Grace note
| (n) Ghost note
| h   Hammer-on
| p   Pull-off
| r   Release
| >   Accented note
| t   Tapping
| b   Bend
| br  Bend release
| pb  Pre-bend
| pbr Pre-bend release
| /   Slide up
| \   Slide down
| ~   Vibrato
| s   Slap
| P   Pop
| PM  Palm mute
| TR  Trill
| N   Tremolo

************************************
Suggest correction
Give kudos to tab author, rate the tab!
1 2 3 4 5
comments
print report bad tab
guest
You may want to rate the tab now too:
select rating
Wanna post a correction for this tab? Suggest correction