Oops, an error
Loading. Please wait.

Die A Happy Man tab

version 1
version 1

Whole song

  • This a full and complete tablature of the song, sp... Show more
113,998 views 636 this week
8 commentsread comments
1 2 3 4 5
x 140
add to favorites
×
Save as Personal and add changes to this tab that will be seen only by you. Learn more ›
×
You can save this tab as Personal to edit and correct it or add notes. All changes will be seen only by you. Learn more »
launch autoscroll
font size
0
reset
how to read this tab
guitar tuner
edit
Autoscroll
slow
fast
+/-
esc
set tempo
stop
Author
Difficulty
intermediate
-------------------------------------------------------------------------------
                             DIE A HAPPY MAN - Thomas Rhett
-------------------------------------------------------------------------------
Tabbed by: Logan Bash
E-mail: loganmbash@hotmail.com 
Tuning: Standard
https://www.youtube.com/watch?v=pKcC4uPKwd4

(for Bm  in the picked part, leave the high e string open)


[Verse] 
                              G       D
e|----------------x-------x-------x-----x------------------------------------|
B|----------------x-------x----3--x--3--x------------------------------------|
G|-------------7--x--7----x----0--x--2--x------------------------------------|
D|-------------7--x--7/9--x-------x--0--x------------------------------------|
A|--5h7--7/9------x-------x-------x-----x------------------------------------|
E|----------------x-------x--3----x-----x------------------------------------|

  D         Bm       G       D
e|--2-----x--0-----x-------x-----x-------------------------------------------|
B|-----3--x-----3--x----3--x--3--x-------------------------------------------|
G|--------x--------x----0--x--2--x-------------------------------------------|
D|--0-----x--------x-------x--0--x-------------------------------------------|
A|--------x--2-----x-------x-----x-------------------------------------------|
E|--------x--------x--3----x-----x-------------------------------------------|

Baby last night was hands down
One of the best nights
That I've had no doubt
Between the bottle of wine
And the look in your eyes and the Marvin Gaye
Then we danced in the dark under September stars in the pourin' rain


[Pre-Chorus]

   Em       D/F#     G      D
e|--------x-----x--------x-----x---------------------------------------------|
B|-----0--x--3--x-----3--x--3--x---------------------------------------------|
G|-----0--x--2--x-----0--x--2--x---------------------------------------------|
D|--------x-----x--------x--0--x---------------------------------------------|
A|--------x-----x--------x-----x---------------------------------------------|
E|--0-----x--2--x--3-----x-----x---------------------------------------------|

   Em       D/F#     G      A
e|--------x-----x--------x-----x---------------------------------------------|
B|-----0--x--3--x-----3--x--2--x---------------------------------------------|
G|-----0--x--2--x-----0--x--2--x---------------------------------------------|
D|--------x-----x--------x--2--x---------------------------------------------|
A|--------x-----x--------x-----x---------------------------------------------|
E|--0-----x--2--x--3-----x-----x---------------------------------------------|

And I know that I can't ever tell you enough
That all I need in this life is your crazy love


[Chorus] 

     Bm                   G        D
If I never get to see the Northern lights
        Bm                          G        D
Or if I never get to see the Eiffel Tower at night
      Bm                G          D
Oh if all I got is your hand in my hand
     Bm            G     D
Baby I could die a happy man yeah

Bm          G     D
Bm          G     D

Happy man, baby
Mmmmm


[Verse] 
                              G       D
e|----------------x-------x-------x-----x------------------------------------|
B|----------------x-------x----3--x--3--x------------------------------------|
G|-------------7--x--7----x----0--x--2--x------------------------------------|
D|-------------7--x--7/9--x-------x--0--x------------------------------------|
A|--5---7/9-------x-------x-------x-----x------------------------------------|
E|----------------x-------x--3----x-----x------------------------------------|

  D         Bm       G       D
e|--2-----x--0-----x-------x-----x-------------------------------------------|
B|-----3--x-----3--x----3--x--3--x-------------------------------------------|
G|--------x--------x----0--x--2--x-------------------------------------------|
D|--0-----x--------x-------x--0--x-------------------------------------------|
A|--------x--2-----x-------x-----x-------------------------------------------|
E|--------x--------x--3----x-----x-------------------------------------------|

Baby that red dress brings me to my knees
Oh but that black dress makes it hard to breathe
You're a saint, you're a Goddess, the cutest, the hottest, a masterpiece
It's too good to be true, nothing better than you
In my wildest dreams


[Pre-Chorus]

   Em       D/F#     G      D
e|--------x-----x--------x-----x---------------------------------------------|
B|-----0--x--3--x-----3--x--3--x---------------------------------------------|
G|-----0--x--2--x-----0--x--2--x---------------------------------------------|
D|--------x-----x--------x--0--x---------------------------------------------|
A|--------x-----x--------x-----x---------------------------------------------|
E|--0-----x--2--x--3-----x-----x---------------------------------------------|

   Em       D/F#     G      A
e|--------x-----x--------x-----x---------------------------------------------|
B|-----0--x--3--x-----3--x--2--x---------------------------------------------|
G|-----0--x--2--x-----0--x--2--x---------------------------------------------|
D|--------x-----x--------x--2--x---------------------------------------------|
A|--------x-----x--------x-----x---------------------------------------------|
E|--0-----x--2--x--3-----x-----x---------------------------------------------|

And I know that I can't ever tell you enough
That all I need in this life is your crazy love

   
[Chorus] 

     Bm                   G        D
If I never get to see the Northern lights
        Bm                          G        D
Or if I never get to see the Eiffel Tower at night
      Bm                G          D
Oh if all I got is your hand in my hand
     Bm            G     D
Baby I could die a happy man yeah


[Bridge] 

        G                    Gm       
I don't need no vacation, no fancy destination
D              A               
Baby you're my great escape
         G                           Gm
We could stay at home, listen to the radio
    D                 A
Or dance around the fireplace


[Chorus] 

         Bm                    G          D
And if I never get to build my mansion in Georgia
           Bm                          G    D
Or drive a sports car up the coast of California
          Bm            G          D
Oh if all I got is your hand in my hand
     Bm            G     D
Baby I could die a happy man


[Outro] 
    
     Bm            G     D
Baby I could die a happy man
   Bm            G     D
Oh I could die a happy man
                  Bm        G        D
You know I could girl
  Bm                              G          D
I could die, I could die a happy man
  
                                  
***************************
| /   Slide up
| x   Mute note
***************************                                   

            
            
Suggest correction
Creating personal tab
Creating personal tab
You can edit any tab online and save it as your Personal.

You can edit, replace or remove any tab part or add personal notes – all changes will be seen only by you.

Personal tabs can be accessed anytime from any device, even offline.
Learn more »
comments
print report bad tab
8 comments total. Showing first comments.
+3 reply
zharley18 93 Nov 12, 2015 07:16 AM

Not a huge deal, but the into should have this instead:

e|----------------x-------x-------x-----x------------------------------------|
B|----------------x-------x----3--x--3--x------------------------------------|
G|-------------7--x--7----x----0--x--2--x------------------------------------|
D|-------------7--x--7/9--x-------x--0--x------------------------------------|
A|--5h7-7/9-------x-------x-------x-----x------------------------------------|
E|----------------x-------x--3----x-----x------------------------------------|

+2 reply
hockeymanaz 65 Dec 18, 2015 12:55 PM

I think for the second chord in the line "Baby you're my great escape" it's a Bm, not an A.

+1 reply
justinslaman 10 Dec 31, 2015 07:49 AM

Awesome tab

guest
You may want to rate the tab now too:
select rating
Wanna post a correction for this tab? Suggest correction