Oops, an error
Loading. Please wait.

Die A Happy Man tab

version 2
version 2

Whole song

  • This a full and complete tablature of the song, sp... Show more
9,199 views 108 this week
3 commentsread comments
1 2 3 4 5
x 6
add to favorites
×
Save as Personal and add changes to this tab that will be seen only by you. Learn more ›
×
You can save this tab as Personal to edit and correct it or add notes. All changes will be seen only by you. Learn more »
launch autoscroll
font size
0
reset
how to read this tab
guitar tuner
edit
Autoscroll
slow
fast
+/-
esc
set tempo
stop
Author
About this tab version
This a full and complete tablature of the song, specific to every part and verse individually, as opposed to other tabs which only give a general tab of what each verse and chorus is/are. Was this info helpful? Yes No
[Intro]

         D          Bm         G       D          D       Bm      G       D
e|---------------x----------x----3--x--------x----2----x--0----x----3--x--------x------|
B|------------3--x--3-------x----3--x--3-----x------3--x----3--x----3--x--3-----x------|
G|------------2--x--2h4-----x----0--x--2-----x---------x-------x----0--x--2-----x------|
D|--0h2--2s4-----x----------x-------x--0--0--x--0-0----x-------x-------x--0--0--x------|
A|---------------x-------2--x-------x--------x---------x--2----x-------x--------x------|
E|---------------x----------x--3----x--------x---------x-------x--3----x--------x------|


[Verse 1]

  Baby last night...        was hands  down...

         D          Bm         G       D       D       Bm      G       D
e|---------------x----------x----3--x-------x--2----x--0-----x----3--x-------x---------|
B|------------3--x--3-------x----3--x--3----x----3--x--3--3--x----3--x--3----x---------|
G|------------2--x--2h4-----x----0--x--2----x-------x--------x----0--x--2----x---------|
D|--0h2--2s4-----x----------x-------x--0--0-x--0----x--------x-------x--0--0-x---------|
A|---------------x-------2--x-------x-------x-------x--2-----x-------x-------x---------|
E|---------------x----------x--3----x-------x-------x--------x--3----x-------x---------|

     ...bottle of...        ...Marvin Gaye...                ...pourin' rain...

         D          Bm          G       D       D       Bm      G       D
e|---------------x----------------3--x-------x--2----x--0----x----3--x-------x---------|
B|------------3--x--3----3---3----3--x--3----x----3--x--3-3--x----3--x--3----x---------|
G|------------2--x--2h4--2h4-2----0--x--2----x-------x-------x----0--x--2----x---------|
D|--0h2--2s4-----x-------------------x--0--0-x--0----x-------x-------x--0--0-x---------|
A|---------------x-------------------x-------x-------x--2----x-------x-------x---------|
E|---------------x--------------3----x-------x-------x-------x--3----x-------x---------|


[Pre-Chorus]

 ...I know...               ...all I need...    crazy love...

    Em      D      G       D       Em      D      G     A
e|-------x--------------x-------x-------x------------x--0------------------------------|
B|----0--x--3---3----3--x--3----x----0--x--3---3--3--x--2------------------------------|
G|----0--x--2---2----0--x--2----x----0--x--2---2--0--x--2------------------------------|
D|----2--x--0---0----0--x--0--0-x----2--x--0---0--0--x--2------------------------------|
A|-------x--------------x-------x-------x------------x--0------------------------------|
E|--0----x--2---2--3----x-------x--0----x--2---2--3--x---------------------------------|


[Chorus]

 ...never get...northern...if I never...Eiffel Tower...

    Bm    Bm     G     D       Bm      Bm     G     D
e|-----x------x-----x-------x-------x------x-----x-------x-----------------------------|
B|--3--x--3---x--3--x--3----x--3----x--3---x--3--x--3----x-----------------------------|
G|--4--x--4---x--0--x--2----x--4----x--4---x--0--x--2----x-----------------------------|
D|--4--x--4---x--0--x--0--0-x--4----x--4---x--0--x--0--0-x-----------------------------|
A|--2--x--2---x--2--x-------x--0h2--x--2---x--2--x-------x-----------------------------|
E|-----x------x--3--x-------x-------x------x--3--x-------x-----------------------------|


...All I got is your hand...baby I could die  a happy man...

    Bm    Bm        G     D       Bm    Bm       G     D
e|-----x---------------x-------x-----x--------------x----------------------------------|
B|--3--x--3--3h5-3--3--x--3----x--3--x--3---3----3--x--3-------------------------------|
G|--4--x--4--4------0--x--2----x--4--x--4---2h4--0--x--2-------------------------------|
D|--4--x--4---------0--x--0--0-x--4--x--4---4----0--x--0-------------------------------|
A|--2--x--2---------2--x-------x--2--x--2--------2--x----------------------------------|
E|-----x------------3--x-------x-----x-----------3--x----------------------------------|


[Post-Verse]

       D         Bm         G     D        D       Bm       G        D
e|------------x-------------------------x--2----x--0-----x--------3--------------------|
B|---------3--x--3-------3------0-------x----3--x--3--3--x--------3--------------------|
G|---------2--x--2h4-----4----0---2-----x-------x--------x------0----2-----------------|
D|--0--2s4----x-------------------0--0--x--0----x--------x-----------0-----------------|
A|------------x-------2-----------------x-------x--2-----x-----------------------------|
E|------------x-------------3-----------x-------x--------x--2h3------------------------|


[Verse 2]

(Starting here, all (x) notes are played quieter/softer) 

         ...brings me to my knees...             ...makes it hard to breathe...

    D         Bm       G         D        D         Bm       G       D
e|---------x------(x)----3--(x)--------x--2----(x)--0-----x----3--x------x-------------|
B|------3--x--3----3-----3--(x)--3-----x----3--(x)--3--3--x----3--x--3---x-------------|
G|------2--x--2h4--4-----0--(x)--2-----x-------(x)--------x--0----x--2---x-------------|
D|--2s4----x------(x)-------(x)--0--0--x--0----(x)--------x-------x--0---x-------------|
A|---------x------(x)-------(x)--------x-------(x)--2-----x-------x------x-------------|
E|---------x------(x)--3----(x)--------x-------(x)--------x--3----x------x-------------|

      ...you're a goddess

      D            Bm       G         D       D       Bm          G    D
e|------------(x)----------------(x)-------x----2--x--2-------(x)---3--(x)-----x-------|
B|---------3--(x)--3----3\----3--(x)--3----x----3--x--3----3--(x)------(x)--3--x-------|
G|---------2--(x)--2h4--4\----0--(x)--2----x-------x--2h4--2--(x)---0--(x)--2--x-------|
D|--0-2s4-----(x)-------------0--(x)--0--0-x--0----x----------(x)-0----(x)--0--x-------|
A|------------(x)----------------(x)-------x-------x----------(x)------(x)-----x-------|
E|------------(x)-----------3----(x)-------x-------x----------(x)------(x)-----x-------|


[Pre-Chorus]

    Em      D      G       D       Em      D      G       A
e|-------x--------------x---------------x--------------x--0--(x)-----------------------|
B|----0--x--3---3----3--x--3----3----0--x--3---3----3--x--2--(x)-----------------------|
G|----0--x--2---2----0--x--2----2----0--x--2---2----0--x--2--(x)-----------------------|
D|----2--x--0---0----0--x--0--0-0----2--x--0---0----0--x--2--(x)-----------------------|
A|-------x--------------x---------------x--------------x--0--(x)-----------------------|
E|--0----x--2---2--3----x----------0----x--2---2--3----x-----(x)-----------------------|


[Chorus]

    Bm    Bm      G     D          Bm    Bm      G     D
e|-----x-------x-----x---------x------x-------------x--------x-------------------------|
B|--3--x--3----x--3--x--3------x---3--x--3--(3)--3--x--3-----x-------------------------|
G|--4--x--4--4-x--0--x--2--2--(2)--4--x--4--(4)--0--x--2--2--x-------------------------|
D|--4--x--4----x--0--x--0---0-(0)--4--x--4--(4)--0--x--0---0-x-------------------------|
A|--2--x--2----x--2--x---------x---2--x--2--(2)--2--x--------x-------------------------|
E|-----x-------x--3--x---------x------x----------3--x--------x-------------------------|

    Bm    Bm        G     D       Bm    Bm       G     D
e|-----x-----(7)-----x-------x----2--------x-----x-------------------------------------|
B|--3--x--3--(3)--3--x--3----x--3-3--3-----x--3--x--3----------------------------------|
G|--4--x--4-------0--x--2----x--4-4--4-----x--0--x--2----------------------------------|
D|--4--x--4-------0--x--0--0-x--4----4-----x--0--x--0----------------------------------|
A|--2--x--2-------2--x-------x--2----2--2--x--2--x-------------------------------------|
E|-----x----------3--x-------x-------------x--3--x-------------------------------------|


[Solo]

e|-------10-10-------------------------------------------------------------------------|
B|--8s10---------10s8-----------------8s10---------------------------------------------|
G|--------------------9b11-9b11b9p7---------9b11-9b11----------------------------------|
D|-------------------------------------------------------------------------------------|
A|-------------------------------------------------------------------------------------|
E|-------------------------------------------------------------------------------------|

e|--12s10-------------------------------15s14------------------------------------------|
B|--------12-12s15--15b17-12--12--12s15-------15-15--15\-------------------------------|
G|-------------------------------------------------------------------------------------|
D|-------------------------------------------------------------------------------------|
A|-------------------------------------------------------------------------------------|
E|-------------------------------------------------------------------------------------|

e|-----x--7-----x--6--x--------x---------x--------x------------------------------------|
B|--8--x--8--8--x--5--x--5--5--x------3--x--3--3--x--3s5--5-5p3------3-----------------|
G|--7--x--7--7--x--5--x--5--5--x------2--x--2--2--x-------------4--4-------------------|
D|--7--x--7--7--x--3--x--3--3--x--2s4----x--0--0--x--0---------------------------------|
A|--5--x--5--5--x--3--x--3--3--x---------x--------x------------------------------------|
E|-----x--------x-----x--------x---------x--------x------------------------------------|

e|--7--x--7--7--x--(7)--(x)--6--x--6--(x)--6--6--(x)----2--(x)--2--(x)--2-2---------5--|
B|--8--x--8--8--x--(8)--(x)--5--x--5--(x)--5--5--(x)----3--(x)--3--(x)--3-3--2--0h2----|
G|--7--x--7--7--x--(7)--(x)--5--x--5--(x)--5--5--(x)----2--(x)--2--(x)--2-2--2---------|
D|--7--x--7--7--x--(7)--(x)--3--x--3--(x)--3--3--(x)--0----(x)-----(x)--0-0--2---------|
A|--5--x--5--5--x--(5)--(x)--3--x--3--(x)--3--3--(x)-------(x)-----(x)-------0---------|
E|-----x--------x-------(x)-----x-----(x)--------(x)-------(x)-----(x)-----------------|

e|----------7--------------------------------7-9p7-------------------------------------|
B|--------7-----7--------7-7----7----------7---------7\------7-7-----------------------|
G|------7-----7--------7---7------7------7---------7-------7---7-----------------------|
D|--7s9-----------9--5-----7--7------7s9-----------------5-----7-----------------------|
A|-------------------------5-----------------------------------5-----------------------|
E|-------------------------------------------------------------------------------------|


[Outro]
 
    Bm      Bm       G       D        Bm      Bm       G     D
e|----2--x-----x----3--x--------x----2--x--2--2--x----3--x--------x--------------------|
B|----3--x--3--x----3--x--3--3--x----3--x--3--3--x----3--x--3--3--x--------------------|
G|----4--x--4--x----0--x--2--2--x----4--x--4--4--x----0--x--2--2--x--------------------|
D|----4--x--4--x----0--x--0--0--x----4--x--4--4--x----0--x--0--0--x--------------------|
A|--2-2--x--2--x-------x--------x--2-2--x--2--2--x----2--x--------x--------------------|
E|-------x-----x--3----x--------x-------x--------x--3----x--------x--------------------|


    Bm      Bm       G       D        Bm      Bm       G     D
e|----2--x-----2--x----3--x--------x----2--x--2--2--x----3--x--------x-----------------|
B|----3--x--3--3--x----3--x--3--3--x----3--x--3--3--x----3--x--3--3--x-----------------|
G|----4--x--4--4--x----0--x--2--2--x----4--x--4--4--x----0--x--2--2--x-----------------|
D|----4--x--4--4--x----0--x--0--0--x----4--x--4--4--x----0--x--0--0--x-----------------|
A|--2-2--x--2--2--x-------x--------x--2-2--x--2--2--x----2--x--------x-----------------|
E|-------x--------x--3----x--------x-------x--------x--3----x--------x-----------------|

      D         Bm            G       D         D      Bm    G   D
e|-----------x---------------------x-------x----2---x--0-----3------2------------------|
B|--------3--x--3-------3---3---3--x--3----x------3-x----3---3-----3-------------------|
G|--------2--x--2h4-----2h4-2---0--x--2----x--------x--------0----2--------------------|
D|--0-2s4----x------------------0--x--0--0-x--0-0---x--------0---0---------------------|
A|-----------x-------2-------------x-------x--------x--2-----2-------------------------|
E|-----------x----------------3----x-------x--------x--------3-------------------------|

Lyrics:


Baby last night was hands down
One of the best nights
That I've had no doubt
Between the bottle of wine
And the look in your eyes and the Marvin Gaye
Then we danced in the dark under September stars in the pourin' rain

And I know that I can't ever tell you enough
That all I need in this life is your crazy love
If I never get to see the Northern lights
Or if I never get to see the Eiffel Tower at night
Oh if all I got is your hand in my hand
Baby I could die a happy man yeah

Happy man, baby

Baby that red dress brings me to my knees
Oh but that black dress makes it hard to breathe
You're a saint, you're a Goddess, the cutest, the hottest, a masterpiece
It's too good to be true, nothing better than you
In my wildest dreams

And I know that I can't ever tell you enough
That all I need in this life is your crazy love
If I never get to see the Northern lights
Or if I never get to see the Eiffel Tower at night
Oh if all I got is your hand in my hand
Baby I could die a happy man yeah

I don't need no vacation, no fancy destination
Baby you're my great escape
We could stay at home, listen to the radio
Or dance around the fireplace

And if I never get to build my mansion in Georgia
Or drive a sports car up the coast of California
Oh if all I got is your hand in my hand
Baby I could die a happy man

Baby I could die a happy man
Oh I could die a happy man
You know I could girl
I could die, I could die a happy man



************************************

| x    Dead note
| (n)  Ghost note
| h    Hammer-on
| p    Pull-off
| b    Bend
| \    Slide down
| s    Slide

************************************

            
            
Suggest correction
Creating personal tab
Creating personal tab
You can edit any tab online and save it as your Personal.

You can edit, replace or remove any tab part or add personal notes – all changes will be seen only by you.

Personal tabs can be accessed anytime from any device, even offline.
Learn more »
comments
print report bad tab
3 comments total.
0 reply
FL_Bob2002 578 Jun 25, 2016 09:14 AM

Sounds great but whats all the X's mean.

0 reply
evanmcd0111 10 Jan 09, 2017 10:58 AM

this is so perfect. bang on

guest
You may want to rate the tab now too:
select rating
Wanna post a correction for this tab? Suggest correction