Oops, an error
Loading. Please wait.

Love Yourself tab

796 views 1 this week
no commentswrite comment
1 2 3 4 5
3 more votes to show rating
add to favorites
×
Save as Personal and add changes to this tab that will be seen only by you. Learn more ›
×
You can save this tab as Personal to edit and correct it or add notes. All changes will be seen only by you. Learn more »
launch autoscroll
font size
0
reset
how to read this tab
guitar tuner
edit
Autoscroll
slow
fast
+/-
esc
set tempo
stop
Author
Difficulty
[Verse 1]

e|----------------------------------------------|
B|-------------9---9---------7---7-------5---5--|
G|----------------------------------------------|
D|----------------------------------------------|
A|-------------7-------------6-----------4------|
E|----------------------------------------------|
 For all the times that you rain on my parade

e|-----------------------------------------------------------|
B|---------------10---10---------9---9---7---7---------------|
G|-----------------------------------------------------------|
D|-----------------------------------------------------------|
A|---------------9---------------7-------6-------------------|
E|-----------------------------------------------------------|
 And all the clubs you get in using my name


e|-----------------------------------------------------------|
B|----------------9---9------------7---7-------5---5---------|
G|-----------------------------------------------------------|
D|-----------------------------------------------------------|
A|----------------7----------------6-----------4-------------|
E|-----------------------------------------------------------|
 You think you broke my heart, oh girl for goodness' sake

e|-------------------------------------------------|
B|----------------10---10-----9---9--------7---7---|
G|-------------------------------------------------|
D|-------------------------------------------------|
A|----------------9-----------7------------6-------|
E|-------------------------------------------------|
  You think I'm crying on my own, well I ain't

e|-----------------------------------------------------------------------------------|
B|---------------------9---9--------7---7---------------5---5------------------------|
G|-----------------------------------------------------------------------------------|
D|-----------------------------------------------------------------------------------|
A|---------------------7------------6-------------------4----------------------------|
E|-----------------------------------------------------------------------------------|
  And I didn't wanna write a song cause I didn't want anyone thinking I still care

e|----------------------------------------|
B|---10---10----9---9------------7---7----|
G|----------------------------------------|
D|----------------------------------------|
A|---9----------7----------------6--------|
E|----------------------------------------|
  I don't but, you still hit my phone up

e|------------------------------------------------------------|
B|----------------9---9------7---7----------5---5-------------|
G|------------------------------------------------------------|
D|------------------------------------------------------------|
A|----------------7----------6--------------4-----------------|
E|------------------------------------------------------------|
  And baby I be movin' on and I think you should be somethin'

e|-----------------------------------------------------|
B|---------------10---10-----9---9-----------7---7-----|
G|-----------------------------------------------------|
D|-----------------------------------------------------|
A|---------------9-----------7---------------6---------|
E|-----------------------------------------------------|
  I don't wanna hold back, maybe you should know that

e|-------------------------------------------------------|
B|-------------------------------------------------------|
G|-------------6-6--x--2----x---------------1-1--x--1--x-|
D|-------------6-6--x--2----x---------------2-2--x--2--x-|
A|-------------4-4--x--0----x---------------2-2--x--2--x-|
E|------------------------------------------0-0-----0----|
  My mama don't like you and she likes everyone

e|--------------------------------------------------|
B|--------------------------------------------------|
G|-------------6-6-x---2---x-----------1-1--x--1--x-|
D|-------------6-6-x---2---x-----------2-2--x--2--x-|
A|-------------4-4-x---0---x-----------2-2--x--2--x-|
E|-------------------------------------0-0-----0----|
  And I never like to admit that I was wrong

e|-------------------------------------------------------------------|
B|-------------------------------------------------------------------|
G|-------------------6-6--x-----2--x------------1-1----x--------4--x-|
D|-------------------6-6--x-----2--x------------2-2----x--------4--x-|
A|-------------------4-4--x-----0--x------------2-2----x--------2--x-|
E|----------------------------------------------0-0------------------|
  And I've been so caught up in my job, didn't see what's going on

e|------------------------------------------------|
B|------------------------------------------------|
G|-----------6-6-x------0-x---4---4---4--4---4----|
D|-----------6-6-x------0-x---4---4---4--4---4--x-|
A|-----------4-4-x------2-x---2---2---2--2---2--x-|
E|----------------------------------------------x-|
  And now I know, I'm better sleeping on my own


[Chorus]

e|--------------------------------------------------|
B|--------------------------------------------------|
G|------------------x----4---x---6----x----2---x----|
D|--------------2---x----4---x---6----x----2---x----|
A|--------------2---x----2---x---4----x----0---x----|
E|--------------0-----------------------------------|
  Cause if you like the way you look that much

e|--------------------------------------------|
B|--------------------------------------------|
G|---------1--------x--------2---x---1---x----|
D|---------2--------x--------2---x---2---x----|
A|---------2--------x--------0---x---2---x----|
E|---------0-------------------------0--------|
  Oh baby you should go and love yourself

e|--------------------------------------------------------|
B|--------------------------------------------------------|
G|------------------x----4-----x----6--x--2--x------------|
D|-------------2----x----4-----x----6--x--2--x------------|
A|-------------2----x----2-----x----4--x--0--x------------|
E|-------------0------------------------------------------|
  And if you think that I'm still holdin' on to somethin'

e|----------------------------------------------|
B|----------------------------------------------|
G|-1-------x---------2---x---1----x-------------|
D|-2-------x---------2---x---2----x-------------|
A|-2-------x---------0---x---2----x-------------|
E|-0-------------------------0----x-------------|
  You should go and love yourself


[Verse 2]

e|-------------------------------------------------|
B|--------------9---9------------7---7-----5---5---|
G|-------------------------------------------------|
D|-------------------------------------------------|
A|--------------7----------------6---------4-------|
E|-------------------------------------------------|
  But when you told me that you hated my friends

e|--------------------------------------------------|
B|----------10---10----------9---9-------7---7------|
G|--------------------------------------------------|
D|--------------------------------------------------|
A|----------9----------------7-----------6----------|
E|--------------------------------------------------|
  The only problem was with you and not them

e|----------------------------------------------------|
B|-----------9---9------------7---7-----------5---5---|
G|----------------------------------------------------|
D|----------------------------------------------------|
A|-----------7----------------6---------------4-------|
E|----------------------------------------------------|
  And every time you told me my opinion was wrong

e|-----------------------------------------------------|
B|--------------10---10--------9---9--------7---7------|
G|-----------------------------------------------------|
D|-----------------------------------------------------|
A|--------------9--------------7------------6----------|
E|-----------------------------------------------------|
  And tried to make me forget where I came from


[Pre-Chorus]

e|-----------------------------------------------------------------------------------|
B|---------------------9---9--------7---7---------------5---5------------------------|
G|-----------------------------------------------------------------------------------|
D|-----------------------------------------------------------------------------------|
A|---------------------7------------6-------------------4----------------------------|
E|-----------------------------------------------------------------------------------|
  And I didn't wanna write a song cause I didn't want anyone thinking I still care

e|----------------------------------------|
B|---10---10----9---9------------7---7----|
G|----------------------------------------|
D|----------------------------------------|
A|---9----------7----------------6--------|
E|----------------------------------------|
  I don't but, you still hit my phone up

e|------------------------------------------------------------|
B|----------------9---9------7---7----------5---5-------------|
G|------------------------------------------------------------|
D|------------------------------------------------------------|
A|----------------7----------6--------------4-----------------|
E|------------------------------------------------------------|
  And baby I be movin' on and I think you should be somethin'

e|-----------------------------------------------------|
B|---------------10---10-----9---9-----------7---7-----|
G|-----------------------------------------------------|
D|-----------------------------------------------------|
A|---------------9-----------7---------------6---------|
E|-----------------------------------------------------|
  I don't wanna hold back, maybe you should know that

e|-------------------------------------------------------|
B|-------------------------------------------------------|
G|-------------6-6--x--2----x---------------1-1--x--1--x-|
D|-------------6-6--x--2----x---------------2-2--x--2--x-|
A|-------------4-4--x--0----x---------------2-2--x--2--x-|
E|------------------------------------------0-0-----0----|
  My mama don't like you and she likes everyone

e|--------------------------------------------------|
B|--------------------------------------------------|
G|-------------6-6-x---2---x-----------1-1--x--1--x-|
D|-------------6-6-x---2---x-----------2-2--x--2--x-|
A|-------------4-4-x---0---x-----------2-2--x--2--x-|
E|-------------------------------------0-0-----0----|
  And I never like to admit that I was wrong

e|-------------------------------------------------------------------|
B|-------------------------------------------------------------------|
G|-------------------6-6--x-----2--x------------1-1----x--------4--x-|
D|-------------------6-6--x-----2--x------------2-2----x--------4--x-|
A|-------------------4-4--x-----0--x------------2-2----x--------2--x-|
E|----------------------------------------------0-0------------------|
  And I've been so caught up in my job, didn't see what's going on

e|------------------------------------------------|
B|------------------------------------------------|
G|-----------6-6-x------0-x---4---4---4--4---4----|
D|-----------6-6-x------0-x---4---4---4--4---4--x-|
A|-----------4-4-x------2-x---2---2---2--2---2--x-|
E|----------------------------------------------x-|
  And now I know, I'm better sleeping on my own


[Chorus]

e|--------------------------------------------------|
B|--------------------------------------------------|
G|------------------x----4---x---6----x----2---x----|
D|--------------2---x----4---x---6----x----2---x----|
A|--------------2---x----2---x---4----x----0---x----|
E|--------------0-----------------------------------|
  Cause if you like the way you look that much

e|--------------------------------------------|
B|--------------------------------------------|
G|---------1--------x--------2---x---1---x----|
D|---------2--------x--------2---x---2---x----|
A|---------2--------x--------0---x---2---x----|
E|---------0-------------------------0--------|
  Oh baby you should go and love yourself

e|--------------------------------------------------------|
B|--------------------------------------------------------|
G|------------------x----4-----x----6--x--2--x------------|
D|-------------2----x----4-----x----6--x--2--x------------|
A|-------------2----x----2-----x----4--x--0--x------------|
E|-------------0------------------------------------------|
  And if you think that I'm still holdin' on to somethin'

e|-----------------------------------------------|
B|-----------------------------------------------|
G|-1-------x---------2---x---1----x--------------|
D|-2-------x---------2---x---2----x--------------|
A|-2-------x---------0---x---2----x--------------|
E|-0-------------------------0----x--------------|
  You should go and love yourself


[Bridge]

e|--------------------------------------------------|
B|--------------9---9---------7---7--------5---5----|
G|--------------------------------------------------|
D|--------------------------------------------------|
A|--------------7-------------6------------4--------|
E|--------------------------------------------------|
  For all the times that you made me feel small

e|---------------------------------------------------|
B|-----------10---10-----------9---9----7---7--------|
G|---------------------------------------------------|
D|---------------------------------------------------|
A|-----------9-----------------7--------6------------|
E|---------------------------------------------------|
  I fell in love, now I fear nothin' at all

e|-------------------------------------------------|
B|---------9---9------------7---7-------5---5------|
G|-------------------------------------------------|
D|-------------------------------------------------|
A|---------7----------------6-----------4----------|
E|-------------------------------------------------|
  I never felt so low when I was vulnerable

e|-------------------------------------------------|
B|---------10---10---------9---9----------7---7----|
G|-------------------------------------------------|
D|-------------------------------------------------|
A|---------9---------------7--------------6--------|
E|-------------------------------------------------|
  Was I a fool to let you break down my walls?


[Chorus]

e|--------------------------------------------------|
B|--------------------------------------------------|
G|------------------x----4---x---6----x----2---x----|
D|--------------2---x----4---x---6----x----2---x----|
A|--------------2---x----2---x---4----x----0---x----|
E|--------------0-----------------------------------|
  Cause if you like the way you look that much

e|--------------------------------------------|
B|--------------------------------------------|
G|---------1--------x--------2---x---1---x----|
D|---------2--------x--------2---x---2---x----|
A|---------2--------x--------0---x---2---x----|
E|---------0-------------------------0--------|
  Oh baby you should go and love yourself

e|--------------------------------------------------------|
B|--------------------------------------------------------|
G|------------------x----4-----x----6--x--2--x------------|
D|-------------2----x----4-----x----6--x--2--x------------|
A|-------------2----x----2-----x----4--x--0--x------------|
E|-------------0------------------------------------------|
  And if you think that I'm still holdin' on to somethin'

e|----------------------------------------------|
B|----------------------------------------------|
G|-1-------x---------2---x---1----x-------------|
D|-2-------x---------2---x---2----x-------------|
A|-2-------x---------0---x---2----x-------------|
E|-0-------------------------0----x-------------|
  You should go and love yourself

e|--------------------------------------------------|
B|--------------------------------------------------|
G|------------------x----4---x---6----x----2---x----|
D|--------------2---x----4---x---6----x----2---x----|
A|--------------2---x----2---x---4----x----0---x----|
E|--------------0-----------------------------------|
  Cause if you like the way you look that much

e|--------------------------------------------|
B|--------------------------------------------|
G|---------1--------x--------2---x---1---x----|
D|---------2--------x--------2---x---2---x----|
A|---------2--------x--------0---x---2---x----|
E|---------0-------------------------0--------|
  Oh baby you should go and love yourself

e|--------------------------------------------------------|
B|--------------------------------------------------------|
G|------------------x----4-----x----6--x--2--x------------|
D|-------------2----x----4-----x----6--x--2--x------------|
A|-------------2----x----2-----x----4--x--0--x------------|
E|-------------0------------------------------------------|
  And if you think that I'm still holdin' on to somethin'

e|-----------------------------------------------|
B|-----------------------------------------------|
G|-1-------x---------2---x---1----x--------------|
D|-2-------x---------2---x---2----x--------------|
A|-2-------x---------0---x---2----x--------------|
E|-0-------------------------0----x--------------|
  You should go and love yourself


***********************************
| x    Dead note
***********************************

            
            
Suggest correction
Creating personal tab
Creating personal tab
You can edit any tab online and save it as your Personal.

You can edit, replace or remove any tab part or add personal notes – all changes will be seen only by you.

Personal tabs can be accessed anytime from any device, even offline.
Learn more »
Give kudos to tab author, rate the tab!
1 2 3 4 5
comments
print report bad tab
guest
You may want to rate the tab now too:
select rating
Wanna post a correction for this tab? Suggest correction