Oops, an error
Loading. Please wait.

If Ye Love Me Tab

852 views 1 this week
no commentswrite comment
1 2 3 4 5
please rate
add to favorites
launch autoscroll
font size
0
reset
how to read this tab
guitar tuner
Autoscroll
slow
fast
+/-
esc
set tempo
stop
Help us to improve Ultimate-Guitar.com Take our survey!
×
Author
Difficulty
intermediate
Thomas Tallis - If Ye Love Me

http://en.wikipedia.org/wiki/Thomas_Tallis

   1   2   3   4    1   2   3   4    1   2   3   4    1   2   3   4 

E-|----------------|--------0-------|----0-----------|1-------0-------|
B-|1-----------1---|3-------1-------|----1---3---1---|1-------1-------|
G-|0-----------2---|4-------0-------|----0---4---2---|2-------0-------|
D-|2-----------2---|5---------------|--------5---2---|----------------|
A-|3-----------0---|--------3-------|----3-------0---|--------3-------|
E-|----------------|3---------------|--------3-------|1---------------|

E-|----0---0---0---|3-------1---0---|--------0-------|----------------|
B-|----------------|----------------|----3-----------|1-------0-------|
G-|----------------|--------2-----0-|----2---2---2---|------------2---|
D-|------------2---|2---2-----------|3-------2-------|--------0-------|
A-|----------------|----------------|--------0-------|0---0---------3-|
E-|----------------|----------------|----------------|----------------|

E-|----------------|------------0---|--------0-------|----------------|
B-|----3---1---1---|6-------1-------|1---1---1---3---|----1-------0---|
G-|----0---2---2---|--------2-------|0---0---0---4---|2---2---0-----0-|
D-|------------3---|3---0-----------|----2-----------|3-2-3---0-----0-|
A-|2-------0-------|5-------0---0---|3-------3-------|0---3-----------|
E-|----------------|----------------|------------3---|--------3---3---|

E-|----------------|----------------|1-----------0---|--------3-------|
B-|----------------|1-------1---0---|----------------|3---1---1---0---|
G-|--------0-------|----------------|2---0-------0---|0---0-----------|
D-|----------------|--------3-------|----2---3-------|----2---0---0---|
A-|3---------------|3---------------|--------5---3---|2---3-----------|
E-|----------------|----------------|----------------|--------3-------|

E-|----1---0-------|----0-----------|----------------|----0-----------|
B-|1-------1---3---|1-------3-------|3---3---0-------|3---1---0---3---|
G-|----2---0---0---|2---2---2-------|4-----------0---|4-------0---2---|
D-|2-----------0---|2---2---4-------|5---------------|------------3---|
A-|3---3---3---2---|0---0---5-------|----------------|----3-----------|
E-|----------------|----------------|3---------------|----------------|

E-|----3-----------|3---1---0-------|----3-----------|3---1---0-------|
B-|--1-1-------1---|----3---1---1---|3---1---0---1---|----1-------3---|
G-|0---------------|----2-------0---|4-------0---2---|0---2---0---0---|
D-|2-----------2---|2---3-----------|------------3---|2-----------0---|
A-|--------3-------|--3-----3-------|----3-------3---|--------3---2---|
E-|----------------|----------------|----------------|----1-----------|

E-|----------------|----------------|
B-|--1-1-------0---|1---------------|
G-|2---2---0-------|0-------0-------| 
D-|2---3---0---0---|2---------------|
A-|0---3-----------|3---------------|
E-|--------3---3---|----------------|

E-|----------------|1-----------0---|--------3-------|
B-|1-------1---0---|----------------|3---1---1---0---|
G-|----------------|2---0-------0---|0---0-----------|
D-|--------3-------|----2---3-------|----2---0---0---|
A-|3---------------|--------5---3---|2---3-----------|
E-|----------------|----------------|--------3-------|

E-|----1---0-------|----0-----------|----------------|----0-----------|
B-|1-------1---3---|1-------3-------|3---3---0-------|3---1---0---3---|
G-|----2---0---0---|2---2---2-------|4-----------0---|4-------0---2---|
D-|2-----------0---|2---2---4-------|5---------------|------------3---|
A-|3---3---3---2---|0---0---5-------|----------------|----3-----------|
E-|----------------|----------------|3---------------|----------------|

E-|----3-----------|3---1---0-------|----3-----------|3---1---0-------|
B-|--1-1-------1---|----3---1---1---|3---1---0---1---|----1-------3---|
G-|0---------------|----2-------0---|4-------0---2---|0---2---0---0---|
D-|2-----------2---|2---3-----------|------------3---|2-----------0---|
A-|--------3-------|--3-----3-------|----3-------3---|--------3---2---|
E-|----------------|----------------|----------------|----1-----------|

E-|----------------|----------------|
B-|--1-1-------0---|1---------------|
G-|2---2---0-------|0---------------|
D-|2---3---0---0---|2---------------|
A-|0---3-----------|3---------------|
E-|--------3---3---|----------------|
Suggest correction
Give kudos to tab author, rate the tab!
1 2 3 4 5
comments
print report bad tab
guest
You may want to rate the tab now too:
select rating
Wanna post a correction for this tab? Suggest correction