Oops, an error
Loading. Please wait.

Beautiful tab

version 2
version 2

Whole song

2,789 views 6 this week
8 commentsread comments
1 2 3 4 5
x 7
add to favorites
×
Save as Personal and add changes to this tab that will be seen only by you. Learn more ›
×
You can save this tab as Personal to edit and correct it or add notes. All changes will be seen only by you. Learn more »
launch autoscroll
font size
0
reset
how to read this tab
guitar tuner
edit
Autoscroll
slow
fast
+/-
esc
set tempo
stop
Author
This is a really good song by a really good band. Pretty easy to play too.

Artist: Thornley
Song: Beautiful
Tabber: gigson111
Tuning: Standard: E A D G B e

^=bend
~=let ring


            Intro/Verse x6
e|-0-0-0-0-0-0-0-0-0-0-0-0---2-2-2-2-2-2-|
B|-2-2-2-2-2-2-0-0-0-0-0-0---2-2-2-2-2-2-|
G|-2-2-2-2-2-2-1-1-1-1-1-1---4-4-4-4-4-4-|
D|-2-2-2-2-2-2-2-2-2-2-2-2---4-4-4-4-4-4-|
A|-0-0-0-0-0-0-2-2-2-2-2-2---2-2-2-2-2-2-|
E|---------------------------------------|
                       Chorus x1
e|----------------------------------------------------------
B|----------------------------------------------------------
G|--6666666-99999-------------------------------------------
D|--6666666-99999-------------------------------------------
A|--4444444-77777-99999-77777-6666--------------------------
E|----------------99999-77777-6666--------3^----------------

e|----------------------------------------------------------
B|----------------------------------------------------------
G|--6666666-99999-------------------------------------------
D|--6666666-99999-------------------------------------------
A|--4444444-77777-99999-77777-6666--------------------------
E|----------------99999-77777-6666--------------------------

                 

Chorusx1

                                 Bridge  

e|---------------------|
B|---------------------|
G|-777-777-777-777-----|
D|-777-777-777-777--9--|
A|-555-555-555-555--9--|
E|------------------9--|



Fill: 

e|-0~--0~--2222|
B|-2~--0~--2222|
G|-2~--1~--4444|
D|-2~--2~--4444|
A|-0~--2~--2222|
E|-------------|
Suggest correction
Creating personal tab
Creating personal tab
You can edit any tab online and save it as your Personal.

You can edit, replace or remove any tab part or add personal notes – all changes will be seen only by you.

Personal tabs can be accessed anytime from any device, even offline.
Learn more »
comments
print report bad tab
8 comments total. Showing first comments.
0 reply
RS-GUITARIST 114 Aug 25, 2006 02:33 PM

this tab looks beautiful

0 reply
gigson111 143 Aug 26, 2006 04:07 PM

lol thx man

+1 reply
Crazy 92 Sep 01, 2006 03:07 PM

i think the chorus should be

e|----------------------------------------------------------
B|----------------------------------------------------------
G|--6666666-99999-------------------------------------------
D|--6666666-99999-------------------------------------------
A|--4444444-77777-99999-77777-6666--------------------------
E|----------------77777-55555-4444--------3^----------------

e|----------------------------------------------------------
B|----------------------------------------------------------
G|--6666666-99999-------------------------------------------
D|--6666666-99999-------------------------------------------
A|--4444444-77777-99999-77777-6666--------------------------
E|----------------77777-55555-4444--------------------------


btw, in the verses/intro i like playing

e|--0--0--0--0--0-0--2--2--2--2-----I
B|--0--0--0--0--0-0--2--2--2--2-----I
G|--4--4--4--4--4-4--4--4--4--4-----I
D|--4--4--4--4--4-4--4--4--4--4-----I
A|--2--2--2--2--2-2--2--2--2--2-----I
E|----------------------------------I

guest
You may want to rate the tab now too:
select rating
Wanna post a correction for this tab? Suggest correction