Oops, an error
Loading. Please wait.

Lies That I Believe Tab

version 1
version 1

Whole song

Interactive

475 views 1 this week
4 commentsread comments
1 2 3 4 5
x 3
add to favorites
launch autoscroll
font size
0
reset
how to read this tab
guitar tuner
Autoscroll
slow
fast
+/-
esc
set tempo
stop
Help us to improve Ultimate-Guitar.com Take our survey!
×
Author
-------------------------------------------------------------------------------
                          Thornley - The Lies That I Believe
-------------------------------------------------------------------------------
Tabbed by: Saitou
Email: saitou181@hotmail.com


Tuning: Drop D Flat (Db-Ab-Db-Gb-Bb-Eb)


I tabbed this in a way that requires less reading. Listen to the song for timings and 
placement.


Intro/Ending (Clean):

Eb|-----------0-----------5--|-----------3--------------|
Bb|-----6-----------6--------|-----4--5--------4--5--4--|
Gb|--7-----7-----7-----7-----|--5-----------5-----------|
Db|--------------------------|--------------------------|
Ab|---------2 times----------|---------2 times----------|
Db|--------------------------|--------------------------|

Bridge (Used in Various Parts of the song):

Eb|-----------------------|-----------------------|
Bb|--------2 times--------|--------2 times--------|
Gb|-----------------------|-----------------------|
Db|--0--2--3--------3--2--|--0--2--3--------3--2--|
Ab|--0--2--3--3b----3--2--|--0--2--3--2b----3--2--|
Db|--0--2--3--------3--2--|--0--2--3--------3--2--|

Verse:

Eb|--------------|--------------|------|
Bb|---2 times----|---2 times----|------|
Gb|--------------|--------------|------|
Db|--0--2--3--0--|--0--2--3--5--|--3---|
Ab|--0--2--3--0--|--0--2--3--5--|--3---|
Db|--0--2--3--0--|--0--2--3--5--|--3---|
     x  x  x  x     x  x  x  x

Chorus:

Eb|---------------------------|
Bb|---------------------------|
Gb|--5--------------------2---|
Db|--5---5---4b---3---5---2---|
Ab|--3---5---4b---3---5---0---|
Db|------5---4b---3---5-------|

Solo 1:

Eb|----------------|--?--|
Bb|----------------|--?--|
Gb|--11b---9-------|--?--|
Db|----------11-9--|--?--|
Ab|----------------|--?--|
Db|----4 times-----|--?--|

Solo 2:

Eb|----------19b------------19b---|--19-20-19-17-15-19b----21b--19b---|--?--|
Bb|--15--17---------15--17--------|-----------------------------------|--?--|
Gb|-------------------------------|-----------------------------------|--?--|
Db|-------------------------------|-----------------------------------|--?--|
Ab|-------------------------------|-----------------------------------|--?--|
Db|-------------------------------|-----------------------------------|--?--|

Note: I'm not all that great at figuring out solos, and too tired to figure them out. 
^^ but if you feel

like letting me know the rest feel free to email me.

Lyrics:

Around it comes and round it goes
Around it swims around my head
All of us are lonely souls and all of us get left for dead
How come i always try to cross
even though i know the bridge is burning?
How come i take it when i know that you fake it?
I tell myself i'm leaving

The lies that i believe are simple
The lies that i believe are true
The lies that i believe are so beautiful
The lies that i believe are true

All the flings and the flaws
Let me cling to someones clause
All of us are lonely souls and all of us mend broken laws
Even though i know the bridge is burning?
How come i take it when i know that you fake it?
I tell myself im learning

The lies that i believe are simple
The lies that i believe are true
The lies that i believe are so beautiful
The lies that i believe are true

Everyone uses, everyone abuses
Nobody take the blame
Everyone uses, everyone abuses
Ain't it such a shame

The lies that i believe are simple
The lies that i believe are true
The lies that i believe are so beautiful
The lies that i believe are true


| /  slide up
| \  slide down
| h  hammer-on
| p  pull-off
| ~  vibrato
| +  harmonic
| x  mute note
| b  bend
===============================================================================
Suggest correction
Give kudos to tab author, rate the tab!
1 2 3 4 5
comments
print report bad tab
4 comments total. Showing first comments.
0 reply
Saitou 30 Dec 14, 2004 12:00 AM

Heh... posted the intro incorrectly. Here's the real one:

Eb|-----------0-----------5--|-----------3--------------|
Bb|-----6-----------6--------|-----4--5--------4--5--4--|
Db|--------------------------|--------------------------|
Gb|--7-----7-----7-----7-----|--5-----------5-----------|
Ab|--------------------------|--------------------------|
Db|---------2 times----------|---------2 times----------|

0 reply
Saitou 30 Dec 14, 2004 12:00 AM

Posted it wrong twice. The real intro:

Eb|-----------0-----------5--|-----------3--------------|
Bb|-----6-----------6--------|-----------------------4--|
Db|--------------------------|-----4--5--------4--5-----|
Gb|--7-----7-----7-----7-----|--5-----------5-----------|
Ab|--------------------------|--------------------------|
Db|---------2 times----------|---------2 times----------|

0 reply
Razeon 40 Oct 23, 2005 11:17 AM

Where's the rest of the solo?! lol damn. I want it!

guest
You may want to rate the tab now too:
select rating
Wanna post a correction for this tab? Suggest correction