Oops, an error
Loading. Please wait.

Underneath The Radar Tab

version 2
version 2

Whole song

1,059 views 1 this week
no commentswrite comment
1 2 3 4 5
please rate
add to favorites
launch autoscroll
font size
0
reset
how to read this tab
guitar tuner
Autoscroll
slow
fast
+/-
esc
set tempo
stop
Help us to improve Ultimate-Guitar.com Take our survey!
×
THORNLEY - Underneath The Radar


open Dm


verse (guitar 1) w/tremolo & phaser
|---------------------------------------------------------------------|
|-------------------0-0-0-0--0-0--------------------------------------|
|-0-0-0-0--5-5-7-7--0-0-0-0--0-0-0-0----------------------------------|
|-7-7-7-7--5-5-5-5--2-2-2-2--2-2-5-5----------------------------------|
|-5-5-5-5--5-5-5-5--3-3-3-3--0-0-4-4----------------------------------|
|----------5-5-5-5----------------------------------------------------|


verse (guitar 2) clean,let ring
D|--------------------------------------------------------------------|
A|--0-0--0-0-------------------------0--------------------------------|
F|---0----0----0----0----0----0----0---0------------------------------|
D|-0----0-----5-5--5-5--2-2--2-2--2-2-2-2-----------------------------|
A|---------------------3----3----0------------------------------------|
D|-----------5----5---------------------------------------------------|


chorus
|--------------------------------------------------------------------------------------|
|----------------------------0:--(alternate picking)-----------------------------------|
|----------------------------x---------------------------------------------------------|
|-----0:---------------------x----5555555555555555-------------------------------------|
|-12\-0:----8-8:----10-8-7-3-3:---3333333344444444-------------------------------------|
|-12\-0:----8-8:----10-8-7-3-3:--------------------------------------------------------|

I'm     weathering the storm..


|-----------------------------------------------------------------------------------|
|(donwpicking)----------------------------------------------------------------------|
|(slight palm mute)---(alternate picking)-------------------------------------------|
|-----------------------------------------------------------------------------------|
|-7-8-7-8-7-8-7-8-------------------------------------------------------------------|
|-7-8-7-8-7-8-7-8-----8700-7500-5300-3200-------------------------------------------|

underneath the radar..


transcribed by Dean LaBonte


Used Tab Symbols
_____________________

 \  = Slide Down
 :  = Let Ring
 x  = Muted Note
____________________

_________________________________________________________________________________________
Suggest correction new What's this?
You can suggest a correction to this tab. Community and Mods will review your correction and vote to approve or reject it.
comments
We did not receive enough feedback on this tab! Please rate:
print report bad tab
1 2 3 4 5
guest
You may want to rate the tab now too:
select rating
Please do not post tabs as comments. Select "correction" instead!