Oops, an error
Loading. Please wait.

Space Hero Suits Bass Tab

673 views 1 this week
no commentswrite comment
1 2 3 4 5
please rate
add to favorites
launch autoscroll
font size
0
reset
guitar tuner
Autoscroll
slow
fast
+/-
esc
set tempo
stop
Help us to improve Ultimate-Guitar.com Take our survey!
×
Author
-------------------------------------------------------------------------------
			      Band: Those Dancing Days
                              Song: Space Hero Suits
-------------------------------------------------------------------------------

Tabbed By : hogoes
e-mail: tgoetjen@hotmail.de

Tuning: standard

This song is pretty easy. You play one Riff most the time.

Intro
G|----------------|
D|3---------------|
A|--------3-------| x7
E|----------------|

G|----------------|
D|----------------|
A|33333333--------| x4
E|--------33333333|

G|--2-0------0---0|
D|3-----3---2-2-2-|
A|--------3----3--| x4
E|----------------|

no Bass until Chorus

Chorus
G|--2-0------0---0|
D|3-----3---2-2-2-|
A|--------3----3--| x4
E|----------------|

Verse
G|--2-0------0---0|
D|3-----3---2-2-2-|
A|--------3----3--| x6
E|----------------|

Chorus
G|--2-0------0---0|
D|3-----3---2-2-2-|
A|--------3----3--| x8
E|----------------|

Interlude
G|----------------|
D|3---------------|
A|--------3-------| x2
E|----------------|

G|--2-0------0---0|
D|3-----3---2-2-2-|
A|--------3----3--| x2
E|----------------|

Chorus
G|--2-0------0---0|
D|3-----3---2-2-2-|
A|--------3----3--| x8
E|----------------|

Outro
G|--2-0------0---0|
D|3-----3---2-2-2-|
A|--------3----3--| x3
E|----------------|

G|--2-0------0---0--------|
D|3-----3---2-2-2-3-------|
A|--------3----3----------|
E|------------------------|

| /  slide up
| \  slide down
| h  hammer-on
| p  pull-off
| ~  vibrato
| +  harmonic
| x  Mute note
===============================================================================
Suggest correction
What's this?
You can suggest a correction to this tab. Community and Mods will review your correction and vote to approve or reject it.
comments
We did not receive enough feedback on this tab! Please rate:
print report bad tab
1 2 3 4 5
guest
You may want to rate the tab now too:
select rating
Please do not post tabs as comments. Select "correction" instead!