Oops, an error
Loading. Please wait.

My Famous Mistake Bass Tab

16 views 1 this week
no commentswrite comment
1 2 3 4 5
3 more votes to show rating
add to favorites
launch autoscroll
font size
0
reset
guitar tuner
Autoscroll
slow
fast
+/-
esc
set tempo
stop
Help us to improve Ultimate-Guitar.com Take our survey!
×
Author
Difficulty
Tuning
novice
D A D G B E
About this tab version
Bass Tab for "My Famous Mistake". Was this info helpful? Yes No
Band: Thought Industry
Album: Black Umbrella
Song: My Famous Mistake
Tab: Bass
Tabbed by: muberal

Tempo: 128bpm
4/4


[Intro]
Synth Intro


[Verse 1]
Guitar Intro. Eight empty measures.

G|----------------------------|
D|----------------------------|
A|--------2/(5)-------2/(5)---|
D|--4-----------0-------------|(x8)


[Chorus 1]

G|----------------------------|----------------------------|
D|----------------------------|----------------------------|
A|----------------------------|--------------5-----2--4----|
D|--4--4--------0-------------|--4-------------------------|


G|----------------------------|----------------------------|
D|----------------------------|----------------------------|
A|----------------------------|--------------5-----0-------|
D|--4--4--------0-------------|--4-------------------------|


G|----------------------------|----------------------------|
D|----------------------------|----------------------------|
A|----------------------------|--------------5-----2--4----|
D|--4--4--------0-------------|--4-------------------------|


G|----------------------------|----------------------------|
D|----------------------------|----------------------------|
A|----------------------------|--------------5--0--0-------|
D|--4--4--------0-------------|--4-------------------------|


[Post-Chorus 1]

Guitar Lick. One empty measure.


[Verse 2]

G|----------------------------|
D|----------------------------|
A|--------2/(5)-------2/(5)---|
D|--4-----------0-------------|(x16)


[Chorus 2]

G|----------------------------|----------------------------|
D|----------------------------|----------------------------|
A|----------------------------|--------------5-----2--4----|
D|--4--4--------0-------------|--4-------------------------|


G|----------------------------|----------------------------|
D|----------------------------|----------------------------|
A|----------------------------|--------------5-----0-------|
D|--4--4--------0-------------|--4-------------------------|

G|----------------------------|----------------------------|
D|----------------------------|----------------------------|
A|----------------------------|--------------5-----2--4----|
D|--4--4--------0-------------|--4-------------------------|


G|----------------------------|----------------------------|
D|----------------------------|----------------------------|
A|----------------------------|--------------5-----0-------|
D|--4--4--------0-------------|--4-------------------------|

G|----------------------------|----------------------------|
D|----------------------------|----------------------------|
A|----------------------------|--------------5-----2--4----|
D|--4--4--------0-------------|--4-------------------------|


G|----------------------------|----------------------------|
D|----------------------------|----------------------------|
A|----------------------------|--------------5--0--0-------|
D|--4--4--------0-------------|--4-------------------------|


[Bridge]

G|----------------------------|
D|----------------------------|
A|----------------------------|
D|--4--4--4--2--0--0--0-------|(x8)


[Chorus 3]

G|----------------------------|----------------------------|
D|----------------------------|----------------------------|
A|----------------------------|--------------5-----2--4----|
D|--4--4--------0-------------|--4-------------------------|


G|----------------------------|----------------------------|
D|----------------------------|----------------------------|
A|----------------------------|--------------5-----0-------|
D|--4--4--------0-------------|--4-------------------------|

G|----------------------------|----------------------------|
D|----------------------------|----------------------------|
A|----------------------------|--------------5-----2--4----|
D|--4--4--------0-------------|--4-------------------------|


G|----------------------------|----------------------------|
D|----------------------------|----------------------------|
A|----------------------------|--------------5--0--0-------|
D|--4--4--------0-------------|--4-------------------------|

[Verse 3/Outro]

Guitar Outro. Five empty measures.

Fin.



************************************
 
| /  slide up
|(n) ghost note

************************************
Suggest correction
Give kudos to tab author, rate the tab!
1 2 3 4 5
comments
print report bad tab
guest
You may want to rate the tab now too:
select rating
Wanna post a correction for this tab? Suggest correction