Oops, an error
Loading. Please wait.

Third Eye Bass Tab

13 views 1 this week
no commentswrite comment
1 2 3 4 5
3 more votes to show rating
add to favorites
launch autoscroll
font size
0
reset
guitar tuner
Autoscroll
slow
fast
+/-
esc
set tempo
stop
Help us to improve Ultimate-Guitar.com Take our survey!
×
Author
Difficulty
Tuning
intermediate
D A D G B E
About this tab version
Bass Tab for "Third Eye" by Thought Industry. Was this info helpful? Yes No
Band: Thought Industry
Album: Songs for Insects
Song: Third Eye
Tab: Bass
Tabbed by: muberal

This song has many subtle or not so subtle changes in tempo and time signature.
Also, some parts are impossible to correctly tab with 100% certainty due to the album's production.

Tempo: 144bpm
4/4

[Intro]
Guitar Intro. Four empty measures.

G|--------------------------------------------------|-------------------------------------------------|
D|--------------------------------------------------|-------------------------------------------------|
A|--------------------------------------------------|-------------------------------------------------|
D|--0--0--0--0--3-----0-----------0---------0-------|--0--0--0--0--3-----0--0--0--0--0h5---0--0--0h5--| x4

Tempo: 137bpm
3/4

G|----------------------------------------|
D|----------------------------------------|
A|----------------------------------------|
D|--0--0--0-----------0--0--0-------------| x4

Tempo: 144bpm
4/4

G|--------------------------------------------------|-------------------------------------------------|
D|--------------------------------------------------|-------------------------------------------------|
A|--------------------------------------------------|-------------------------------------------------|
D|--0--0--0--0--3-----0-----------0---------0-------|--0--0--0--0--3-----0--0--0--0--0h5---0--0--0h5--| x4

Tempo: 137bpm
3/4

G|----------------------------------------|
D|----------------------------------------|
A|----------------------------------------|
D|--0--0--0-----------0--0--0-------------| x4

[Verse 1]
4/4

G|----------------------------------------------------|----------------------------------------------------|
D|----------------------------------------------------|----------------------------------------------------|
A|----------------------------------------------------|----------------------------------------------------|
D|--0--0--0-----------0--0--0-----------0--0--0-------|--------0--0--0-----------3--3--3--3--3--3--3--3----|

G|----------------------------------------------------|----------------------------------------------------|
D|----------------------------------------------------|----------------------------------------------------|
A|----------------------------------------------------|----------------------------------------------------|
D|--0--0--0-----------0--0--0-----------0--0--0-------|--------0--0--0-----------3--3--3--3--5--5--5--5----|

G|----------------------------------------------------|----------------------------------------------------|
D|----------------------------------------------------|----------------------------------------------------|
A|----------------------------------------------------|----------------------------------------------------|
D|--0--0--0-----------0--0--0-----------0--0--0-------|--------0--0--0-----------3--3--3--3--3--3--3--3----|

G|----------------------------------------------------|----------------------------------------------------|
D|----------------------------------------------------|----------------------------------------------------|
A|----------------------------------------------------|----------------------------------------------------|
D|--0--0--0-----------0--0--0-----------0--0--0-------|--------0--0--0-----------3--3--3-----1--1--1-------|

G|----------------------------------------------------|----------------------------------------------------|
D|----------------------------------------------------|----------------------------------------------------|
A|----------------------------------------------------|----------------------------------------------------|
D|--0--0--0-----------0--0--0-----------0--0--0-------|--------0--0--0-----------3--3--3--3--3--3--3--3----|

G|----------------------------------------------------|----------------------------------------------------|
D|----------------------------------------------------|----------------------------------------------------|
A|----------------------------------------------------|----------------------------------------------------|
D|--0--0--0-----------0--0--0-----------0--0--0-------|--------0--0--0-----------3--3--3--3--5--5--5--5----|

G|----------------------------------------------------|----------------------------------------------------|
D|----------------------------------------------------|----------------------------------------------------|
A|----------------------------------------------------|----------------------------------------------------|
D|--0--0--0-----------0--0--0-----------0--0--0-------|--------0--0--0-----------3--3--3--3--3--3--3--3----|

G|----------------------------------------------------|----------------------------------------------------|
D|----------------------------------------------------|----------------------------------------------------|
A|----------------------------------------------------|----------------------------------------------------|
D|--0--0--0-----------0--0--0-----------0--0--0-------|--------0--0--0-----------3--3--3-----1--1--1-------|

[Pre-Chorus 1]
Tempo: 140bpm

G|----------------------------|
D|----------------------------|
A|--2--2--2--2--2--2--2--2----|
D|--2--2--2--2--2--2--2--2----| x4

G|----------------------------|
D|----------------------------|
A|--3--3--3--3--3--3--3--3----|
D|--3--3--3--3--3--3--3--3----| x2

G|----------------------------|
D|----------------------------|
A|--3--3--3--3--3-------------|
D|--3--3--3--3--3-------------|

G|----------------------------|
D|----------------------------|
A|--3--3--3--3--3--3--3--3----|
D|--3--3--3--3--3--3--3--3----|

[Chorus 1a]
Tempo: 162bpm

G|----------------------------|---------------------------------------------------|
D|----------------------------|---------------------------------------------------|
A|----------------------------|---------------------------------------------------|
D|--0-----0--0--0--0--0--0----|--0--0--0-----0-----0-----0--0--0-----0-----4------|

G|----------------------------|---------------------------------------------------|
D|----------------------------|--7--7--6--6--6--6--6--6--------4-----6------------|
A|----------------------------|---------------------------------------------------|
D|--------4--4--4--4--4--4----|--------------------------4-----------------0------|

G|----------------------------|---------------------------------------------------|
D|----------------------------|---------------------------------------------------|
A|----------------------------|---------------------------------------------------|
D|--------0--0--0--0--0--0----|--0--0--0-----0-----0-----0--0--0-----0-----4------|

G|------------------------------|---------------------------------------------------|
D|------------------------------|---------------------------------------------------|
A|------------------------------|---------------------------------------------------|
D|----4-4-4--4-4-4--4--4-4-4----|--7-----------4-----------4-----6-----7-----0------|


G|----------------------------|---------------------------------------------------|
D|----------------------------|---------------------------------------------------|
A|----------------------------|---------------------------------------------------|
D|--------0--0--0--0--0--0----|--0--0--0-----0-----0-----0--0--0-----0-----4------|

G|----------------------------|---------------------------------------------------|
D|----------------------------|--7--7--6--6--6--6--6--6--------4-----6------------|
A|----------------------------|---------------------------------------------------|
D|--------4--4--4--4--4--4----|--------------------------4-----------------0------|

G|----------------------------|---------------------------------------------------|
D|----------------------------|---------------------------------------------------|
A|----------------------------|---------------------------------------------------|
D|--------0--0--0--0--0--0----|--0--0--0-----0-----0-----0--0--0-----0-----0------|

[Chorus 1b]
G|---------------------------|----------------------------------------------------|
D|---------------------------|----------------------------------------------------|
A|---------------------------|----------------------------------------------------|
D|--5-----5--0-----0--2------|--------2--2--2-----2-----3-----2-----2-----2-------|

G|---------------------------|----------------------------------------------------|
D|---------------------------|----------------------------------------------------|
A|---------------------------|----------------------------------------------------|
D|--5-----5--0-----0--2------|--------2--2--2-----2-----3-----2-----3-----2-------|

G|---------------------------|----------------------------------------------------|
D|---------------------------|----------------------------------------------------|
A|---------------------------|----------------------------------------------------|
D|--5-----5--0-----0--2------|--------2-----2-----2-----3-----2-----2-----2-------|

Tempo: 137bpm
G|----------------------------|
D|----------------------------|
A|----------------------------|
D|--5--5--5--7--7--7----------|

[Post-Chorus]
Tempo: 115bpm
3/4

Extremely fast picking.

G|----------------------------------------------------------------------------|
D|----------------------------------------------------------------------------|
A|----------------------------------------------------------------------------|
D|--0--0--0-----0--0--0-----------------0--0--0-----0-------------------------|

G|----------------------------------------------------------------------------|
D|----------------------------------------------------------------------------|
A|----------------------------------------------------------------------------|
D|--0--0--0-----0--0--0-----------------0--0--0-----0--0--0-------------------|


G|----------------------------------------------------------------------------|
D|----------------------------------------------------------------------------|
A|----------------------------------------------------------------------------|
D|--0--0--0-----0--0--0-----------------0--0--0-----0-------------------------|

4/4

G|------------------------------------------------------------------------------------------------------|
D|------------------------------------------------------------------------------------------------------|
A|------------------------------------------------------------------------------------------------------|
D|--0--0--0-----0--0--0---------------------------------------------------------------------------------|

[Verse 2]
Tempo: 137bpm

G|----------------------------------------------------|----------------------------------------------------|
D|----------------------------------------------------|----------------------------------------------------|
A|----------------------------------------------------|----------------------------------------------------|
D|--0--0--0-----------0--0--0-----------0--0--0-------|--------0--0--0-----------3--3--3--3--3--3--3--3----|

G|----------------------------------------------------|----------------------------------------------------|
D|----------------------------------------------------|----------------------------------------------------|
A|----------------------------------------------------|----------------------------------------------------|
D|--0--0--0-----------0--0--0-----------0--0--0-------|--------0--0--0-----------3--3--3--3--5--5--5--5----|

G|----------------------------------------------------|----------------------------------------------------|
D|----------------------------------------------------|----------------------------------------------------|
A|----------------------------------------------------|----------------------------------------------------|
D|--0--0--0-----------0--0--0-----------0--0--0-------|--------0--0--0-----------3--3--3--3--3--3--3--3----|

G|----------------------------------------------------|----------------------------------------------------|
D|----------------------------------------------------|----------------------------------------------------|
A|----------------------------------------------------|----------------------------------------------------|
D|--0--0--0-----------0--0--0-----------0--0--0-------|--------0--0--0-----------3--3--3-----1--1--1-------|

G|----------------------------------------------------|----------------------------------------------------|
D|----------------------------------------------------|----------------------------------------------------|
A|----------------------------------------------------|----------------------------------------------------|
D|--0--0--0-----------0--0--0-----------0--0--0-------|--------0--0--0-----------3--3--3--3--3--3--3--3----|

G|----------------------------------------------------|----------------------------------------------------|
D|----------------------------------------------------|----------------------------------------------------|
A|----------------------------------------------------|----------------------------------------------------|
D|--0--0--0-----------0--0--0-----------0--0--0-------|--------0--0--0-----------3--3--3--3--5--5--5--5----|

G|----------------------------------------------------|----------------------------------------------------|
D|----------------------------------------------------|----------------------------------------------------|
A|----------------------------------------------------|----------------------------------------------------|
D|--0--0--0-----------0--0--0-----------0--0--0-------|--------0--0--0-----------3--3--3--3--3--3--3--3----|

G|----------------------------------------------------|----------------------------------------------------|
D|----------------------------------------------------|----------------------------------------------------|
A|----------------------------------------------------|----------------------------------------------------|
D|--0--0--0-----------0--0--0-----------0--0--0-------|--------0--0--0-----------3--3--3-----1--1--1-------|

[Pre-Chorus 2]
Tempo: 140bpm

G|----------------------------|
D|----------------------------|
A|--2--2--2--2--2--2--2--2----|
D|--2--2--2--2--2--2--2--2----| x4

G|----------------------------|
D|----------------------------|
A|--3--3--3--3--3--3--3--3----|
D|--3--3--3--3--3--3--3--3----| x4

[Chorus 2a]
Tempo: 162bpm

G|----------------------------|---------------------------------------------------|
D|----------------------------|---------------------------------------------------|
A|----------------------------|---------------------------------------------------|
D|--0-----0--0--0--0--0--0----|--0--0--0-----0-----0-----0--0--0-----0-----4------|

G|----------------------------|---------------------------------------------------|
D|----------------------------|--7--7--6--6--6--6--6--6--------4-----6------------|
A|----------------------------|---------------------------------------------------|
D|--------4--4--4--4--4--4----|--------------------------4-----------------0------|

G|----------------------------|---------------------------------------------------|
D|----------------------------|---------------------------------------------------|
A|----------------------------|---------------------------------------------------|
D|--------0--0--0--0--0--0----|--0--0--0-----0-----0-----0--0--0-----0-----4------|

G|----------------------------|---------------------------------------------------|
D|----------------------------|---------------------------------------------------|
A|--------------4-------------|---------------------------------------------------|
D|----4-4-4--4-----4--4--4----|--7-----------4-----------4-----6-----7-----0------|


G|----------------------------|---------------------------------------------------|
D|----------------------------|---------------------------------------------------|
A|----------------------------|---------------------------------------------------|
D|--------0--0--0--0--0--0----|--0--0--0-----0-----0-----0--0--0-----0-----4------|

G|----------------------------|---------------------------------------------------|
D|----------------------------|--7--7--6--6--6--6--6--6--------4-----6------------|
A|----------------------------|---------------------------------------------------|
D|--------4--4--4--4--4--4----|--------------------------4-----------------0------|

G|----------------------------|---------------------------------------------------|
D|----------------------------|---------------------------------------------------|
A|----------------------------|---------------------------------------------------|
D|--------0--0--0--0--0--0----|--0--0--0-----0-----0-----0--0--0-----0-----0------|

[Chorus 1b]
G|---------------------------|----------------------------------------------------|
D|---------------------------|----------------------------------------------------|
A|---------------------------|----------------------------------------------------|
D|--5-----5--0-----0--2------|--------2--2--2-----2-----3-----2-----2-----2-------|

G|---------------------------|----------------------------------------------------|
D|---------------------------|----------------------------------------------------|
A|---------------------------|----------------------------------------------------|
D|--5-----5--0-----0--2------|--------2--2--2-----2-----3-----2-----3-----2-------|

G|---------------------------|----------------------------------------------------|
D|---------------------------|----------------------------------------------------|
A|---------------------------|----------------------------------------------------|
D|--5-----5--0-----0--2------|--------2-----2-----2-----3-----2-----2-----2-------|

Tempo: 150bpm
G|----------------------------|
D|----------------------------|
A|----------------------------|
D|--5--5--5--7--7--7----------|

[Bridge A]
Tempo: 235bpm

G|----------------------------|----------------------------|----------------------------|
D|----------------------------|----------------------------|----------------------------|
A|----------------------------|----------------------------|----------------------------|
D|--0-----------0--0----------|--0-----------0-------------|--0--0--------0--0----------|

One empty measure.

G|----------------------------|----------------------------|----------------------------|
D|----------------------------|----------------------------|----------------------------|
A|----------------------------|----------------------------|----------------------------|
D|--0-----------0--0----------|--0-----------0--0--0-------|--0-----------0--0----------|

G|----------------------------|
D|----------------------------|
A|----------------------------|
D|--1--1--1--1--1--1--1--1----|

[Bridge B / Guitar Solo]
Tempo: 250bpm

G|----------------------------|----------------------------|
D|----------------------------|-----------0p----0p----0p---|
A|----------------------------|----------------------------|
D|--0s-------12s---12s---12s--|--0s------------------------|

G|----------------------------|----------------------------|
D|----------------------------|----------------------------|
A|----------------------------|----------------------------|
D|--0s-------12s---12s--------|--13s------15s------13s-----|


G|----------------------------|----------------------------|
D|----------------------------|-----------0p----0p----0p---|
A|----------------------------|----------------------------|
D|--0s-------12s---12s---12s--|--0s------------------------|

G|----------------------------|----------------------------|
D|----------------------------|----------------------------|
A|----------------------------|----------------------------|
D|--0s-------12s------0s------|--------15s---15s---15s-----|

G|----------------------------|----------------------------|
D|----------------------------|-----------0p----0p----0p---|
A|----------------------------|----------------------------|
D|--0s-------12s---12s---12s--|--0s------------------------|

G|----------------------------|----------------------------|
D|----------------------------|----------------------------|
A|----------------------------|----------------------------|
D|--0s-------12s------0s------|--15s---13s15s---13s15s-----|

G|----------------------------|----------------------------|
D|----------------------------|-----------0p----0p----0p---|
A|----------------------------|----------------------------|
D|--0s-------12s---12s---12s--|--0s------------------------|

G|----------------------------|----------------------------|
D|----------------------------|----------------------------|
A|----------------------------|----------------------------|
D|--0s-------12s---0--0--0----|--15s---15s---15s---15s-----|

Tempo: 264bpm

G|----------------------------|----------------------------|
D|----------------------------|----------------------------|
A|----------------------------|----------------------------|
D|--0--0-----0-----0----------|--0--0-----0-----0-----0----|

G|----------------------------|----------------------------|
D|----------------------------|----------------------------|
A|----------------------------|----------------------------|
D|--0--0-----0-----0----------|--1--1--1--1--3--3--1--1----|

G|----------------------------|----------------------------|
D|----------------------------|----------------------------|
A|----------------------------|----------------------------|
D|--0--0-----0-----0----------|--0--0-----0-----0-----0----|

G|----------------------------|----------------------------|
D|----------------------------|----------------------------|
A|----------------------------|----------------------------|
D|--0--0-----0-----0----------|--1--1--3--3--1--1--3--3----|

G|----------------------------|----------------------------|
D|----------------------------|----------------------------|
A|----------------------------|----------------------------|
D|--0--0-----0-----0----------|--0--0-----0-----0-----0----|

G|----------------------------|----------------------------|
D|----------------------------|----------------------------|
A|----------------------------|----------------------------|
D|--0--0-----0-----0----------|--1--1--1--1--3--3--1--1----|

G|----------------------------|----------------------------|
D|----------------------------|----------------------------|
A|----------------------------|----------------------------|
D|--0--0-----0-----0----------|--0--0-----0-----0-----0----|

G|----------------------------|----------------------------|
D|----------------------------|----------------------------|
A|----------------------------|----------------------------|
D|--0--0-----0-----0----------|--1--1--3--3--1--1--3--3----|

Tempo: 132bpm
5/4

G|----------------------------------------------------------------|
D|--------------------------------------------------3--3--1--1----|
A|----------------------------------------------------------------|
D|--0-----------------0--0--0-------------------------------------| x3

[Verse 3]
Tempo: 137bpm
3/4

G|----------------------------------------|
D|----------------------------------------|
A|----------------------------------------|
D|--0--0--0-----------0--0--0-------------| x12

[Outro]
Tempo: 132bpm
7/4

G|--12-12-12------------------------------------------------------------------------------|
D|--------------------12-12-12----------13-13-13------------------------------------------|
A|--------------------------------------------------------13-13-12-12-11----10------------|
D|----------------------------------------------------------------------------------------|

G|--12-12-12------------------------------------------------------------------------------|
D|--------------------12-12-12----------13-13-13------------------------------------------|
A|--------------------------------------------------------13-13-13------------------------|
D|----------------------------------------------------------------------------------------|

G|--12-12-12------------------------------------------------------------------------------|
D|--------------------12-12-12----------13-13-13------------------------------------------|
A|--------------------------------------------------------13-13-12-12-11----10------------|
D|----------------------------------------------------------------------------------------|

Fin.

************************************

| h   hammer-on
| s   slap
| p   pop

************************************
Suggest correction
Give kudos to tab author, rate the tab!
1 2 3 4 5
comments
print report bad tab
guest
You may want to rate the tab now too:
select rating
Wanna post a correction for this tab? Suggest correction