Oops, an error
Loading. Please wait.

Absolute Bass Tab

version 1
version 1

Whole song

Interactive

5,047 views 6 this week
5 commentsread comments
1 2 3 4 5
excellent!
x 4
add to favorites
launch autoscroll
font size
0
reset
guitar tuner
Autoscroll
slow
fast
+/-
esc
set tempo
stop
Help us to improve Ultimate-Guitar.com Take our survey!
×
Contributor
Difficulty
Tuning
cj14 63
novice
D A D G B E
Song: Absolute
Band: Thousand Foot Krutch
Album: The Art Of Breaking
Bassist: Joel Bruyere
Tuning: Drop-D
Tabbed By: Neill French
Revised By: cj14/calder

Intro: No Bass, 32-Beat Rest

Verse #1:
G|-----5-----------------5----------------|
D|---7-------7-------7-----5---7----------|
A|-5-------5---8--35--------5-----8--3--3-|
D|----------------------------------------|

Pre-chorus:
G|---------------------------------------------------|
D|---------------------------------------------------|
A|---------------------------------------------------|
D|--0---000-000---0--7--3--5-0---000-000---0--3--5-0-|

Chorus:
G|-----------------------------------------------------|
D|-----------------------------------------------------|
A|-----------------------------------------------------|
D|-88-8s33-3s55550000--88-8s33--3s10101010-10s7-7h8----|

G|----------------------------------------------------|
D|----------------------------------------------------|
A|----------------------------------------------------|
D|-88-8s33-3s55550000--88-8s33--3s10101010—7s3s5s0----|

Post-Chorus: No Bass, 8-Beat Rest

Verse #2:
G|-----5----------------5----------------|
D|---7-------7-------7--------7----------|
A|-5-------5---8---5-------5-----8--3--3-|
D|---------------------------------------|

G|-----5---------------------5-5-----------------|
D|---7-------7-------------7-----5--7------------|
A|-5-------5---8--3-3-3--5--------5-----8--3-3-3-|
D|-----------------------------------------------|

Pre-chorus:
G|---------------------------------------------------|
D|---------------------------------------------------|
A|---------------------------------------------------|
D|--0---000-000---0--7--3--5-0---000-000---0--3--5-0-|

Chorus:
G|-----------------------------------------------------|
D|-----------------------------------------------------|
A|-----------------------------------------------------|
D|-88-8s33-3s55550000--88-8s33--3s10101010-10s7-7h8----|

G|----------------------------------------------------|
D|----------------------------------------------------|
A|----------------------------------------------------|
D|-88-8s33-3s55550000--88-8s33--3s10101010—7s3s5------|

Bridge Part A: (x6)
G|--------------------|
D|--------------------|
A|--5---3--2--1--0----|
D|--------------------|

  Bridge Part B: (x2)
G|-----------------------|
D|-----------------------|
A|--555-333-222-111-00---|
D|-----------------------|

Chorus:
G|-----------------------------------------------------|
D|-----------------------------------------------------|
A|-----------------------------------------------------|
D|-88-8s33-3s55550000--88-8s33--3s10101010-10s7-7h8----|

G|----------------------------------------------------|
D|----------------------------------------------------|
A|----------------------------------------------------|
D|-88-8s33-3s55550000--88-8s33--3s10101010—77-55------|

Chorus/Outro:
G|-----------------------------------------------------|
D|-----------------------------------------------------|
A|-----------------------------------------------------|
D|-88-8s33-3s55550000--88-8s33--3s10101010-10s7-7h8----|

G|----------------------------------------------------|
D|----------------------------------------------------|
A|----------------------------------------------------|
D|-88-8s33-3s55550000--88-8s33--3s10101010—7s3s5s0----|
comments
print report bad tab
5 comments total. Showing first comments.
+1 reply
hashm4g17 243 wrote on December 2 2006, 12:36 pm

Hey, pretty good tab. This is what I worked out here, I don't know if it helps at all but

Intro
G|-----5-------------------5-5------------------|
D|---7-------7---------7-------7-----7----------|
A|-5-------5---8--3--5-----------5------8--3--3-|
D|----------------------------------------------|


Verse
G|-----5----------------5----------------|
D|---7-------7-------7--------7----------|
A|-5-------5---8---5-------5-----8--3--3-|
D|---------------------------------------|

G|-----5---------------------5-5--5----------------------|
D|---7-------7-------------7-----------7----7------------|
A|-5-------5---8--3-3-3--5----------------5-----8--3-3---|
D|-------------------------------------------------------|

Cheers!

0 reply
cj14 63 wrote on December 5 2006, 12:56 pm

thnx that correction is actually right

0 reply
Ilovemybass 13 wrote on February 16 2007, 07:46 pm

Actually you have the beginning of the song wrong 4 the bass...

I want to post or [tab]
guest
You may want to rate the tab now too:
select rating
Please do not post tabs as comments. Select "correction" instead!