Oops, an error
Loading. Please wait.

Absolute Tab

version 1
version 1

Whole song

Interactive

7,830 views 1 this week
4 commentsread comments
1 2 3 4 5
x 3
add to favorites
launch autoscroll
font size
0
reset
how to read this tab
guitar tuner
Autoscroll
slow
fast
+/-
esc
set tempo
stop
Help us to improve Ultimate-Guitar.com Take our survey!
×
Author
Difficulty
Tuning
novice
D A D G B E
Thousand Foot Krutch - Absolute

It's in drop D, i haven't figured out the intro's and minor parts but this is the main 
The strums aren't exact.

Verse                          |--let ring
E|----------------------------------------|
B|----------------------------------------|
G|----------------------------------------|
D|-0-00-00-0-7-3-5-0-00-00-3-5-0----------|
A|-0-00-00-0-7-3-5-0-00-00-3-5-0----------|
D|-0-00-00-0-7-3-5-0-00-00-3-5-0----------|

Chorus
E|-------------------------------------|
B|-------------------------------------|
G|-------------------------------------|
D|-88-33-5555-0000-88-33-101010-10-7---|
A|-88-33-5555-0000-88-33-101010-10-7---|
D|-88-33-5555-0000-88-33-101010-10-7---|

E|--------------------------------------------|
B|--------------------------------------------|
G|--------------------------------------------|
D|--88-33-5555-0000-88-33-101010p7-3-5-0-ring-|
A|--88-33-5555-0000-88-33-101010p7-3-5-0-ring-|
D|--88-33-5555-0000-88-33-101010p7-3-5-0-ring-|
* those are 10's not 1 and 0

The ending just repeats the first half of the chorus a couple times before they play the 
part to end it.
Suggest correction
Give kudos to tab author, rate the tab!
1 2 3 4 5
comments
print report bad tab
4 comments total. Showing first comments.
0 reply
ShadowTa 10 Jan 04, 2006 09:58 AM

Okay I have the intro for you. Its not my own tabbing, its from another site but it is 100% accurate.

B|-----6----------5-------3--1------5--6-------------|
G|---7---7------5-------3---------5------------------|

-1 reply
neveragain_off 10 Mar 17, 2006 09:44 PM

this is isn't even close...

0 reply
Rollingstone24 121 Aug 27, 2006 04:35 PM

Do the intro..bro

guest
You may want to rate the tab now too:
select rating
Wanna post a correction for this tab? Suggest correction