Oops, an error
Loading. Please wait.

Absolute Tab

version 2
version 2

Whole song

Interactive

3,865 views 1 this week
1 commentread comment
1 2 3 4 5
x 3
add to favorites
launch autoscroll
font size
0
reset
how to read this tab
guitar tuner
Autoscroll
slow
fast
+/-
esc
set tempo
stop
Help us to improve Ultimate-Guitar.com Take our survey!
×
Author
Artist: Thousand Foot Krutch
Song: Absolute
Album: The Art Of Breaking
Tabbed by: Ashley

Tuning: Drop D

Ok, so the Intro may not be 100% correct, and the spacing between chords will definitely 
you to the wrong timing, but hopefully most of the notes are correct? Also I have not 
added the little lead fill parts - I may get around to it later if I have time.


intro/verse:
e----------------------------------|
b----6--------5-5-----3-1------5-6-|
g-77---7---55------33-------55-----|
d----------------------------------|
a----------------------------------|
d----------------------------------|


pre-chorus:
e---------------------------------|---------------------------|
b---------------------------------|---------------------------|
g-77-----------77-----7-----------|----------77----7----------|
d-77-0---0-0---77-0---7-0---7-3-5-|-0---00---77-0--7-0---3-5-0|
a-55-0---0-0---55-0---5-0---7-3-5-|-0---00---55-0--5-0---3-5-0|
d----0---0-0------0-----0---7-3-5-|-0---00------0----0---3-5-0|


pre-chorus 2:
e------------------------------------|---------------------------|
b------------------------------------|---------------------------|
g-77-----------77--------7-----------|----------77----7----------|
d-77-0---0-0---77-0-(0)--7-0---7-3-5-|-0---00---77-0--7-0---3-5-0|
a-55-0---0-0---55-0-(0)--5-0---7-3-5-|-0---00---55-0--5-0---3-5-0|
d----0---0-0------0-(0)----0---7-3-5-|-0---00------0----0---3-5-0|


chorus:
e---------------------|----------------------|---------------------|----------------------|
b---------------------|----------------------|---------------------|----------------------|
g--------------7--7---|--------5555----------|--------------7--7---|--------5555----------|
d-88--33-5555007077---|-88--33-5555-0-10-0-7-|-88--33-5555007077---|-88--33-5555-7-3-5-0--|
a-88--33-5555005075---|-88--33-3333-0-10-0-7-|-88--33-5555005075---|-88--33-3333-7-3-5-0--|
d-88--33-555500-07----|-88--33------0-10-0-7-|-88--33-555500-07----|-88--33------7-3-5-0--|


bridge:
e-----------------------0h1-|
b---3-----3-----3----3------|
g--2----2----2----2---------|
d-0-------------------------|
a-----3----2----1-----------|
d---------------------------|


final chorus:
e---------------------|----------------------|---------------------|-----------------------|
b---------------------|----------------------|---------------------|-----------------------|
g--------------7--7---|--------5555----------|--------------7--7---|--------5555-----------|
d-88--33-5555007077---|-88--33-5555-0-10-0-7-|-88--33-5555007077---|-88--33-5555-0h10-0h7--|
a-88--33-5555005075---|-88--33-3333-0-10-0-7-|-88--33-5555005075---|-88--33-3333-0h10-0h7--|
d-88--33-555500-07----|-88--33------0-10-0-7-|-88--33-555500-07----|-88--33------0h10-0h7--|

e------------------------|-------------------------|------------------------|-------------------------||
b------------------------|-------------------------|------------------------|-------------------------||
g-----------------7--7---|-----------5555----------|-----------------7--7---|-----------5555----------||
d-8888-3333-5555007077---|-8888-3333-5555-0h10-0h7-|-8888-3333-5555007077---|-8888-3333-5555-7-3-5-0--||
a-8888-3333-5555005075---|-8888-3333-3333-0h10-0h7-|-8888-3333-5555005075---|-8888-3333-3333-7-3-5-0--||
d-8888-3333-555500-07----|-8888-3333------0h10-0h7-|-8888-3333-555500-07----|-8888-3333------7-3-5-0--||

___Song Structure____

Intro/verse x6
Pre-chorus
Chorus
Bridge
Intro/verse x4
[first lead fill]
Pre-chorus 2
Chorus
Bridge x8
[second lead fill]
Final chorus
Suggest correction
Give kudos to tab author, rate the tab!
1 2 3 4 5
comments
print report bad tab
1 comment total.
0 reply
Andy_VonSchweal 10 Apr 27, 2009 08:49 PM

this tab is amazingly awesome. i don't see any flaws in it at all. i love this song!

guest
You may want to rate the tab now too:
select rating
Wanna post a correction for this tab? Suggest correction