Oops, an error
Loading. Please wait.

Absolute Tab

version 3
version 3

Whole song

Interactive

11,875 views 12 this week
no commentswrite comment
1 2 3 4 5
excellent!
x 6
add to favorites
launch autoscroll
font size
0
reset
how to read this tab
guitar tuner
Tab Pro tools
  • play this tab
  • loop segment
  • change instrument
  • show fretboard
  • metronome
×
Best way to learn
"Absolute"
Autoscroll
slow
fast
+/-
esc
set tempo
stop
Artist: Thousand Foot Krutch
Song: Absolute
Album: The Art of Breaking
Tuning: Drop D

Verse:
    (Repeat x6)
E||------------------------------------------|
B||------------------------------------------|
G||o-/7-10-7-------9--------7----------9-10-o|
D||o-----------/10-------/8---10---/10------o|
A||------------------------------------------|
D||------------------------------------------|

Pre-Chorus 1:
E|-----------------------------------------------------------|
B|-----------------------------------------------------------|
G|--77----------77---7---------------------7----7------------|
D|--xx0---0-0---xx0--x-0-7--3--5-0---0-0---x-0--x-0-3--5--0--|
A|--550---0-0---550--5-0-7--3--5-0---0-0---5-0--5-0-3--5--0--|
D|----0---0-0-----0----0-7--3--5-0---0-0-----0----0-3--5--0--|

Chorus:
E|-----------------------------------------------------------------------|
B|-----------------------------------------------------------------------|
G|-----------------------------7-77--------------------------------------|
D|--8-8---83-3---35-5-5-5-0-0--x0xx--8-8---83-3---310-10-10-10--x10--x7--|
A|--8-8---83-3---35-5-5-5-0-0--5055--8-8---83-3---310-10-10-10--x10--x7--|
D|--8-8---83-3---35-5-5-5-0-0---0----8-8---83-3---310-10-10-10--x10--x7--|

E|------------------------------------------------------------------------|
B|------------------------------------------------------------------------|
G|-----------------------------7-77------------------------------------7--|
D|--8-8---83-3---35-5-5-5-0-0--x0xx--8-8---83-3---310-10-10-10-7--3--5-0--|
A|--8-8---83-3---35-5-5-5-0-0--5055--8-8---83-3---310-10-10-10-7--3--5-0--|
D|--8-8---83-3---35-5-5-5-0-0---0----8-8---83-3---310-10-10-10-7--3--5-0--|

Post-Chorus:
E|--------------------------0-h1----|
B|------3-----3-----3-----3------3--|
G|----2-----2-----2-----2-----------|
D|--0-------------------------------|
A|--------3-----2-----1-------------|
D|----------------------------------|

Verse:
   (Repeat x4)
E|------------------------------------------|
B|------------------------------------------|
G|o-/7-10-7-------9--------7----------9-10-o|
D|o-----------/10-------/8---10---/10------o|
A|------------------------------------------|
D|------------------------------------------|

   (Comes in over 4th repeat)
E|-------------------------------|
B|-------------------------------|
G|-------------------------------|
D|-------------------------------|
A|--55555555555555553h55555555~--|
D|-------------------------------|
Fade in to here-----|

Pre-Chorus 2:
E|----------------------------------------------------------|
B|----------------------------------------------------------|
G|------------7-----7---------------------77---7------------|
D|--0---0-0---x-0--0x-0-7--3--5-0---0-0---xx0--x-0-3--5--0--|
A|--0---0-0---5-0--05-0-7--3--5-0---0-0---550--5-0-3--5--0--|
D|--0---0-0-----0--0--0-7--3--5-0---0-0-----0----0-3--5--0--|

Chorus:
E|-----------------------------------------------------------------------|
B|-----------------------------------------------------------------------|
G|-----------------------------7-77--------------------------------------|
D|--8-8---83-3---35-5-5-5-0-0--x0xx--8-8---83-3---310-10-10-10--x10--x7--|
A|--8-8---83-3---35-5-5-5-0-0--5055--8-8---83-3---310-10-10-10--x10--x7--|
D|--8-8---83-3---35-5-5-5-0-0---0----8-8---83-3---310-10-10-10--x10--x7--|

E|------------------------------------------------------------------------|
B|------------------------------------------------------------------------|
G|-----------------------------7-77------------------------------------7--|
D|--8-8---83-3---35-5-5-5-0-0--x0xx--8-8---83-3---310-10-10-10-7--3--5-0--|
A|--8-8---83-3---35-5-5-5-0-0--5055--8-8---83-3---310-10-10-10-7--3--5-0--|
D|--8-8---83-3---35-5-5-5-0-0---0----8-8---83-3---310-10-10-10-7--3--5-0--|

Bridge:
E|--------------------------------0-h1--------------------------0-h1--|
B|--3-------------------2-------2------3---3-----3-3---3~-----3-------|
G|--2-----------0-----0---0---0--------2-2-----2---2-2------0---------|
D|--0-----------------------------------------------------------------|
A|----------3-------2-------1-----0----------3------------------------|
D|--------------------------------------------------------------------|

E|--------------0---------0-h1-------------0-----------0-h1--|
B|------3-----3---3------------3---3-----3-----3-3---3-------|
G|----2-------------0---0------2-2-----2---------------------|
D|--0--------------------------0-----------------------------|
A|--------3-----------1--------------3-----------------------|
D|-----------------------------------------------------------|

E|------------------------0-h1-------------------------0-h1--|
B|------3-----------3---3----------3-----3-----3-----3-------|
G|----2-------0-------0----------2-----0-----0-----0---------|
D|--0---------x----------------0-----------------------------|
A|--------3---3-2-----1--------------------------------------|
D|-----------------------------------3-----2-----1-----------|

E|--------------------------0-h1--|
B|------3-----3-----3-----3-------|
G|----2-----0-----0-----0---------|
D|--0-----------------------------|
A|--------------------------------|
D|--------3-----2-----1-----------|

Outro:
   (Repeat x2)
E|-----------------------------------------------------------------------|
B|-----------------------------------------------------------------------|
G|o----------------------------7-77-------------------------------------o|
D|o-8-8---83-3---35-5-5-5-0-0--x0xx--8-8---83-3---310-10-10-10--x10--x7-o|
A|--8-8---83-3---35-5-5-5-0-0--5055--8-8---83-3---310-10-10-10--x10--x7--|
D|--8-8---83-3---35-5-5-5-0-0---0----8-8---83-3---310-10-10-10--x10--x7--|

E|--------------------------------------------------------------------------|
B|--------------------------------------------------------------------------|
G|-------------------------------7-77---------------------------------------|
D|--8-8-8-8-3-3-3-3-5-5-5-5-0-0--x0xx--8-8-8-8-3-3-3-3-10-10-10-10--x10--x7-|
A|--8-8-8-8-3-3-3-3-5-5-5-5-0-0--5055--8-8-8-8-3-3-3-3-10-10-10-10--x10--x7-|
D|--8-8-8-8-3-3-3-3-5-5-5-5-0-0---0----8-8-8-8-3-3-3-3-10-10-10-10--x10--x7-|

E|--------------------------------------------------------------------------|
B|--------------------------------------------------------------------------|
G|-------------------------------7-77-------------------------------------7-|
D|--8-8-8-8-3-3-3-3-5-5-5-5-0-0--x0xx--8-8-8b---3-3-3---10-10-10--7--3--5-0-|
A|--8-8-8-8-3-3-3-3-5-5-5-5-0-0--5055--8-8-8b---3-3-3---10-10-10--7--3--5-0-|
D|--8-8-8-8-3-3-3-3-5-5-5-5-0-0---0----8-8-8b---3-3-3---10-10-10--7--3--5-0-|


Legend:
	| b - Bend
	| / - Slide up
	| \ - Slide down
	| h - Hammer-on
	| p - Pull-off
	| ~ - Vibrato
	| + - Harmonic
	| x - Muted Note
	| . - Palm Muted
	| x/ pick scrape up
	| x\ pick scrape down
comments
print report bad tab
I want to post or [tab]
guest
You may want to rate the tab now too:
select rating
Please do not post tabs as comments. Select "correction" instead!