Oops, an error
Loading. Please wait.

Adrenaline tab

757 views 12 this week
no commentswrite comment
1 2 3 4 5
x 3
add to favorites
×
Save as Personal and add changes to this tab that will be seen only by you. Learn more ›
×
You can save this tab as Personal to edit and correct it or add notes. All changes will be seen only by you. Learn more »
launch autoscroll
font size
0
reset
how to read this tab
guitar tuner
edit
Autoscroll
slow
fast
+/-
esc
set tempo
stop
Michael Glodoski
iamnumber12@live.com


Drop B

Rap 1:
C#|----------------------------------------------------------------|
G#|----------------------------------------------------------------|
E |----------------------------------------------------------------|
B |-0-0--0-0-0-8-7--0-0--0-0-0-8-7--0-0--0-0-0-8-7--10-10-10-8-8-7-|
F#|-0-0--0-0-0-8-7--0-0--0-0-0-8-7--0-0--0-0-0-8-7--10-10-10-8-8-7-|
B |-0-0--0-0-0-8-7--0-0--0-0-0-8-7--0-0--0-0-0-8-7--10-10-10-8-8-7-|

C#|----------------------------------------------------------------|
G#|----------------------------------------------------------------|
E |----------------------------------------------------------------|
B |-0-0--0-0-0-8-7--0-0--0-0-0-8-7--0-0--0-0-0-8-7--10-10-10-8-8-7-|
F#|-0-0--0-0-0-8-7--0-0--0-0-0-8-7--0-0--0-0-0-8-7--10-10-10-8-8-7-|
B |-0-0--0-0-0-8-7--0-0--0-0-0-8-7--0-0--0-0-0-8-7--10-10-10-8-8-7-|


Verse 1:
C#|--------------------------------------------------------------------------------------------------|
G#|--------------------------------------------------------------------------------------------------|
E |--------------------------------------------------------------------------------------------------|
B |-0-0-0-0--0--0-0-0-0--0--0-0-0-0--0--0-0-0--------0-0-0-0--0--0-0-0-0--0--0-0-0-0--0--0-0-0-------|
F#|-0-0-0-0--0--0-0-0-0--0--0-0-0-0--0--0-0-0--------0-0-0-0--0--0-0-0-0--0--0-0-0-0--0--0-0-0-------|
B |-0-0-0-0--0--0-0-0-0--0--0-0-0-0--0--0-0-0-0h3h5--0-0-0-0--0--0-0-0-0--0--0-0-0-0--0--0-0-0-0h3h5-|
    * * * *     * * * *     * * * *     * * *        * * * *     * * * *     * * * *     * * *

Pre-Chorus 1:
C#|-------------------------------------------------------|
G#|-------------------------------------------------------|
E |-------------------------------------------------------|
B |-12-12--11-11--10-10--8-7--12-12--11-11--10-10--xx-/12-|
F#|-12-12--11-11--10-10--8-7--12-12--11-11--10-10--xx-/12-|
B |-12-12--11-11--10-10--8-7--12-12--11-11--10-10--xx-/12-|


Chorus 1:
C#|-----------------------------------------------------------------------------------|
G#|-----------------------------------------------------------------------------------|
E |-----------------------------------------------------------------------------------|
B |-12-12-12-12-12-12-12-12--10-10-10-10-10-10-10-10--8-8-8-8-8-8-8-8-----------------|
F#|-12-12-12-12-12-12-12-12--10-10-10-10-10-10-10-10--8-8-8-8-8-8-8-8-----------------|
B |-12-12-12-12-12-12-12-12--10-10-10-10-10-10-10-10--8-8-8-8-8-8-8-8--5-3-5/6/\5-3-0-|

C#|-------------------------------------------------------------------------------------|
G#|-------------------------------------------------------------------------------------|
E |-------------------------------------------------------------------------------------|
B |-12-12-12-12-12-12-12-12--10-10-10-10-10-10-10-10--8-8-8-8-8-8-8-8-------------------|
F#|-12-12-12-12-12-12-12-12--10-10-10-10-10-10-10-10--8-8-8-8-8-8-8-8-------------------|
B |-12-12-12-12-12-12-12-12--10-10-10-10-10-10-10-10--8-8-8-8-8-8-8-8--5-3-5/6/\5-0-5-3-|


C#|-----------------------------------------------------------------------------------|
G#|-----------------------------------------------------------------------------------|
E |-----------------------------------------------------------------------------------|
B |-12-12-12-12-12-12-12-12--10-10-10-10-10-10-10-10--8-8-8-8-8-8-8-8-----------------|
F#|-12-12-12-12-12-12-12-12--10-10-10-10-10-10-10-10--8-8-8-8-8-8-8-8-----------------|
B |-12-12-12-12-12-12-12-12--10-10-10-10-10-10-10-10--8-8-8-8-8-8-8-8--5-3-5/6/\5-3-0-|


C#|-----------------------------------------------------------------------------------|
G#|-----------------------------------------------------------------------------------|
E |-----------------------------------------------------------------------------------|
B |-12-12-12-12-12-12-12-12--10-10-10-10-10-10-10-10--8-8-8-8-8-8-8-8-----------------|
F#|-12-12-12-12-12-12-12-12--10-10-10-10-10-10-10-10--8-8-8-8-8-8-8-8-----------------|
B |-12-12-12-12-12-12-12-12--10-10-10-10-10-10-10-10--8-8-8-8-8-8-8-8--5-3-5/6/\5-3-0-|

Rap 2:
C#|----------------------------------------------------------------|
G#|----------------------------------------------------------------|
E |----------------------------------------------------------------|
B |-0-0--0-0-0-8-7--0-0--0-0-0-8-7--0-0--0-0-0-8-7--10-10-10-8-8-7-|
F#|-0-0--0-0-0-8-7--0-0--0-0-0-8-7--0-0--0-0-0-8-7--10-10-10-8-8-7-|
B |-0-0--0-0-0-8-7--0-0--0-0-0-8-7--0-0--0-0-0-8-7--10-10-10-8-8-7-|

C#|----------------------------------------------------------------|
G#|----------------------------------------------------------------|
E |----------------------------------------------------------------|
B |-0-0--0-0-0-8-7--0-0--0-0-0-8-7--0-0--0-0-0-8-7--10-10-10-8-8-7-|
F#|-0-0--0-0-0-8-7--0-0--0-0-0-8-7--0-0--0-0-0-8-7--10-10-10-8-8-7-|
B |-0-0--0-0-0-8-7--0-0--0-0-0-8-7--0-0--0-0-0-8-7--10-10-10-8-8-7-|


Verse 2:
C#|--------------------------------------------------------------------------------------------------|
G#|--------------------------------------------------------------------------------------------------|
E |--------------------------------------------------------------------------------------------------|
B |-0-0-0-0--0--0-0-0-0--0--0-0-0-0--0--0-0-0--------0-0-0-0--0--0-0-0-0--0--0-0-0-0--0--0-0-0-------|
F#|-0-0-0-0--0--0-0-0-0--0--0-0-0-0--0--0-0-0--------0-0-0-0--0--0-0-0-0--0--0-0-0-0--0--0-0-0-------|
B |-0-0-0-0--0--0-0-0-0--0--0-0-0-0--0--0-0-0-0h3h5--0-0-0-0--0--0-0-0-0--0--0-0-0-0--0--0-0-0-0h3h5-|
    * * * *     * * * *     * * * *     * * *        * * * *     * * * *     * * * *     * * *


Pre-Chorus 2:
C#|-------------------------------------------------------|
G#|-------------------------------------------------------|
E |-------------------------------------------------------|
B |-12-12--11-11--10-10--8-7--12-12--11-11--10-10--xx-/12-|
F#|-12-12--11-11--10-10--8-7--12-12--11-11--10-10--xx-/12-|
B |-12-12--11-11--10-10--8-7--12-12--11-11--10-10--xx-/12-|

Chorus 2:
C#|-----------------------------------------------------------------------------------|
G#|-----------------------------------------------------------------------------------|
E |-----------------------------------------------------------------------------------|
B |-12-12-12-12-12-12-12-12--10-10-10-10-10-10-10-10--8-8-8-8-8-8-8-8-----------------|
F#|-12-12-12-12-12-12-12-12--10-10-10-10-10-10-10-10--8-8-8-8-8-8-8-8-----------------|
B |-12-12-12-12-12-12-12-12--10-10-10-10-10-10-10-10--8-8-8-8-8-8-8-8--5-3-5/6/\5-3-0-|

C#|-------------------------------------------------------------------------------------|
G#|-------------------------------------------------------------------------------------|
E |-------------------------------------------------------------------------------------|
B |-12-12-12-12-12-12-12-12--10-10-10-10-10-10-10-10--8-8-8-8-8-8-8-8-------------------|
F#|-12-12-12-12-12-12-12-12--10-10-10-10-10-10-10-10--8-8-8-8-8-8-8-8-------------------|
B |-12-12-12-12-12-12-12-12--10-10-10-10-10-10-10-10--8-8-8-8-8-8-8-8--5-3-5/6/\5-0-5-3-|


C#|-----------------------------------------------------------------------------------|
G#|-----------------------------------------------------------------------------------|
E |-----------------------------------------------------------------------------------|
B |-12-12-12-12-12-12-12-12--10-10-10-10-10-10-10-10--8-8-8-8-8-8-8-8-----------------|
F#|-12-12-12-12-12-12-12-12--10-10-10-10-10-10-10-10--8-8-8-8-8-8-8-8-----------------|
B |-12-12-12-12-12-12-12-12--10-10-10-10-10-10-10-10--8-8-8-8-8-8-8-8--5-3-5/6/\5-3-0-|


C#|-------------------------------------------------------------------------------------------------|
G#|-------------------------------------------------------------------------------------------------|
E |-------------------------------------------------------------------------------------------------|
B |-12-12-12-12-12-12-12-12--10-10-10-10-10-10-10-10--8-8-8-8-8-8-8-8-----------------5-3-5/6\5-3-0-|
F#|-12-12-12-12-12-12-12-12--10-10-10-10-10-10-10-10--8-8-8-8-8-8-8-8-------------------------------|
B |-12-12-12-12-12-12-12-12--10-10-10-10-10-10-10-10--8-8-8-8-8-8-8-8--5-3-5/6/\5-3-0---------------|


Bridge
C#|------------------------------------------------------------------------------------------------------|
G#|------------------------------------------------------------------------------------------------------|
E |------------------------------------------------------------------------------------------------------|
B |-0--0-0-0-0--0-0-0--0-0-0-0-0--6--0-0-0-0--0-0-0-0-0-0--6--0-0-0-0--0-0--5-3-5/6\5-3-0--5-3-5/6\5-3-0-|
F#|-0--0-0-0-0--0-0-0--0-0-0-0-0--6--0-0-0-0--0-0-0-0-0-0--6--0-0-0-0--0-0--5-3-5/6\5-3-0--5-3-5/6\5-3-0-|
B |-0--0-0-0-0--0-0-0--0-0-0-0-0--6--0-0-0-0--0-0-0-0-0-0--6--0-0-0-0--0-0--5-3-5/6\5-3-0--5-3-5/6\5-3-0-|
       * *      * *    * *
Solo:
C#|-----------------------------------------------------------------------------------|
G#|-----------------------------------------------------------------------------------|
E |-----------------------------------------------------------------------------------|
B |-12-12-12-12-12-12-12-12--10-10-10-10-10-10-10-10--8-8-8-8-8-8-8-8-----------------|
F#|-12-12-12-12-12-12-12-12--10-10-10-10-10-10-10-10--8-8-8-8-8-8-8-8-----------------|
B |-12-12-12-12-12-12-12-12--10-10-10-10-10-10-10-10--8-8-8-8-8-8-8-8--5-3-5/6/\5-3-0-|


C#|-----------------------------------------------------------------------------------|
G#|-----------------------------------------------------------------------------------|
E |-----------------------------------------------------------------------------------|
B |-12-12-12-12-12-12-12-12--10-10-10-10-10-10-10-10--8-8-8-8-8-8-8-8-----------------|
F#|-12-12-12-12-12-12-12-12--10-10-10-10-10-10-10-10--8-8-8-8-8-8-8-8-----------------|
B |-12-12-12-12-12-12-12-12--10-10-10-10-10-10-10-10--8-8-8-8-8-8-8-8--5-3-5/6/\5-3-0-|


Chorus 3:
C#|-----------------------------------------------------------------------------------|
G#|-----------------------------------------------------------------------------------|
E |-----------------------------------------------------------------------------------|
B |-12-12-12-12-12-12-12-12--10-10-10-10-10-10-10-10--8-8-8-8-8-8-8-8-----------------|
F#|-12-12-12-12-12-12-12-12--10-10-10-10-10-10-10-10--8-8-8-8-8-8-8-8-----------------|
B |-12-12-12-12-12-12-12-12--10-10-10-10-10-10-10-10--8-8-8-8-8-8-8-8--5-3-5/6/\5-3-0-|

C#|-------------------------------------------------------------------------------------|
G#|-------------------------------------------------------------------------------------|
E |-------------------------------------------------------------------------------------|
B |-12-12-12-12-12-12-12-12--10-10-10-10-10-10-10-10--8-8-8-8-8-8-8-8-------------------|
F#|-12-12-12-12-12-12-12-12--10-10-10-10-10-10-10-10--8-8-8-8-8-8-8-8-------------------|
B |-12-12-12-12-12-12-12-12--10-10-10-10-10-10-10-10--8-8-8-8-8-8-8-8--5-3-5/6/\5-0-5-3-|


C#|-----------------------------------------------------------------------------------|
G#|-----------------------------------------------------------------------------------|
E |-----------------------------------------------------------------------------------|
B |-12-12-12-12-12-12-12-12--10-10-10-10-10-10-10-10--8-8-8-8-8-8-8-8-----------------|
F#|-12-12-12-12-12-12-12-12--10-10-10-10-10-10-10-10--8-8-8-8-8-8-8-8-----------------|
B |-12-12-12-12-12-12-12-12--10-10-10-10-10-10-10-10--8-8-8-8-8-8-8-8--5-3-5/6/\5-3-0-|


C#|-----------------------------------------------------------------------------------|
G#|-----------------------------------------------------------------------------------|
E |-----------------------------------------------------------------------------------|
B |-12-12-12-12-12-12-12-12--10-10-10-10-10-10-10-10--8-8-8-8-8-8-8-8---------------0-|
F#|-12-12-12-12-12-12-12-12--10-10-10-10-10-10-10-10--8-8-8-8-8-8-8-8---------------0-|
B |-12-12-12-12-12-12-12-12--10-10-10-10-10-10-10-10--8-8-8-8-8-8-8-8--5-3-5/6/\5-3-0-|


Guitar 2

Bridge 
C#|-----------------------------------------------------------------|
G#|-----------------------------------------------------------------|
E |-7-7-7-7-7-7-7-7--5-5-5-5-5-5-5-5--4-4-4-4-4-4-4-4---------------|
B |---------------------------------------------------5-3-5/6\5-3-0-|
F#|-----------------------------------------------------------------|
B |-----------------------------------------------------------------|

C#|-------------------------------------------------------------------------------|
G#|-------------------------------------------------------------------------------|
E |-7-7-7-7-7-7-7-7--5-5-5-5-5-5-5-5--4-4-4-4-4-4-4-4-----------------------------|
B |---------------------------------------------------5-3-5/6\5-3-0-5-3-5/6\5-3-0-|
F#|-------------------------------------------------------------------------------|
B |-------------------------------------------------------------------------------|

Solo:
C#|-5/10-8---------------------------------------10-8----10-8------------------------------------------|
G#|--------10-8h10-6-----------10-13-10-10-13-10------10------10-8h10-6-----------10-13-10-13-10-13-15-|
E |------------------7-7-10-12------------------------------------------7-7-10-12----------------------|
B |----------------------------------------------------------------------------------------------------|
F#|----------------------------------------------------------------------------------------------------|
B |----------------------------------------------------------------------------------------------------|

            
            
Suggest correction
Creating personal tab
Creating personal tab
You can edit any tab online and save it as your Personal.

You can edit, replace or remove any tab part or add personal notes – all changes will be seen only by you.

Personal tabs can be accessed anytime from any device, even offline.
Learn more »
Give kudos to tab author, rate the tab!
1 2 3 4 5
comments
print report bad tab
guest
You may want to rate the tab now too:
select rating
Wanna post a correction for this tab? Suggest correction